Break The Silence tab with lyrics by Killswitch Engage - Easy chords and tabs for guitar

Killswitch Engage – Break The Silence tab

----------------------------------------------------------------------------
		    Break The Silence - Killswitch Engage
----------------------------------------------------------------------------

Tabbed by:ParkwayDrive121
Email:kerza_54@hotmail.com

Tuning: C G C F A D


Intro|--------------------------------------------------------||--------------------------------------------------------||--------------------------------------------------------||-3p0-3p0-3p0-7p0-5p0-3p0--5p0-5p0-5p0--8p0-7p0-5p0------||----5---5---5----------------7---7---7------------------||--------------------------------------------------------|
|
|--------------------------------------------------------||--------------------------------------------------------||--------------------------------------------------------||-0------------------------5-----------------------------||-0------------------------5-----------------------------||-0------------------------5-----------------------------|
|-------------------------------|---------------------------||-------------------------------|---------------------------||-------------------------------|----2h3p2------------------||-7p0--7p0--7p0----10p0-8p0-7p0-|-0h3-----3-------2h3p2-----||-----8----8----8---------------|----------1/3-0h3-----3----||-------------------------------|-----------------------3/5-|
|
|-------------------------------|------------------------||-------------------------------|------------------------||-------------------------------|------------------------||-7-----------------------------|-8------------3---------||-7-----------------------------|-8------------3---------||-7-----------------------------|-8------------3---------|
|------------------------------||------------------------------||----2h3p2---------------------||-0h3-----3p0------------------||-------------8-10-8\----------||-------------8-10-8\----------|
|
|------------------------------||------------------------------||------------------------------||-8----------------------------||-8-----------8-10-8\----------||-8-----------8-10-8\----------|
verse 1|----------------------------------------------------||----------------------------------------------------||----------------------------------------------------||--------------------------------2h3p2---------------||---0--0-0--0-0--0-0-0-0-0-0--0h3-----3p0-3--5--8\---||---0--0-0--0-0--0-0-0-0-0-0--------------3--5--8\---|
|----------------------------------------------------||----------------------------------------------------||--------------------------------2h3p2---------------||-----------------------------0h3-----3p0------------||---0--0-0--0-0--0-0-0-0-0-0--------------8--10--8\--||---0--0-0--0-0--0-0-0-0-0-0--------------8--10--8\--|
|-----------------------------------------||-----------------------------------------||-----------------------------------------||-----------------------------------------||--0--0-0--0-0--0-0-0-0-0-0---8--10--8\---||--0--0-0--0-0--0-0-0-0-0-0---8--10--8\---|
verse 2|----------------------------------------------------||----------------------------------------------------||----------------------------------------------------||----------------------------------------------------||---0-0--0-0-0--0-0-0--0-0-0--0-0-0--0-----3-----8---||---0-0--0-0-0--0-0-0--0-0-0--0-0-0--0-0-0-3-0-0-8---|
|----------------------------------------------------||----------------------------------------------------||----------------------------------------------------||----------------------------------------------------||---0-0--0-0-0--0-0-0--0-0-0--0-0-0--0-----3-----1---||---0-0--0-0-0--0-0-0--0-0-0--0-0-0--0-0-0-3-0-0-1---|
|-----------------------------------------------------------||-----------------------------------------------------------||-----------------------------------------------------------||-----------------------------------------------------------||---0-0--0-0-0--0-0-0--0-0-0--0-0-0--0------3-5-3--8-10-12/-||---0-0--0-0-0--0-0-0--0-0-0--0-0-0--0-0-0--3-5-3--8-10-12/-|
verse 3|----------------------------------------------------||----------------------------------------------------||----------------------------------------------------||----------------------------------------------------||------------------------------------3------8--------||---0-0-0-0-0-0-0-0-0-0-0-0-0-0--0-0-3--0-0-8--------|
|----------------------------------------------------||----------------------------------------------------||----------------------------------------------------||----------------------------------------------------||------------------------------------3------1--------||---0-0-0-0-0-0-0-0-0-0-0-0-0-0--0-0-3--0-0-1--------|
|----------------------------------------------------||----------------------------------------------------||----------------------------------------------------||----------------------------------------------------||--------------------------------1/---8--10--8\------||---0-0-0-0-0-0-0-0-0-0-0-0-0-0--1/---8--10--8\------|
verse 1
chorus (not entirely sure, but sounds about right)|-----------------------------------------------------||-----------------------------------------------------||----2h3p2----7p0-5p0-3p0-2p0-------------------------||-0h3-----3p0-----------------------------------------||-----------------------------------------------------||-----------------------------------------------------|
|
|-----------------------------------------------------||-----------------------------------------------------||-----------------------------------------------------||-1-----------3------------5-----------8--------------||-1-----------3------------5-----------8--------------||-1-----------3------------5-----------8--------------|
verse 2 chorus
then..|---------------------------------------||--11-10--5-6--5-6--6-5-----------------||--x--x---x-x--x-x--x-x-----------------||--8--7---2-3--2-3--3-2-----------------||---------------------------------------||---------------------------------------|
|(after two this comes in)|-------------------------------------------||-11-11-11-11-5-5-5-5-13-13-13-13--6-6-6-6--||-------------------------------------------||---8--8--8--8-2-2-2-2--10-10-10-10-3-3-3-3-||-------------------------------------------||-------------------------------------------|
then..(this time, distortion and strumming)|---------------------------------------||--11-10--5-6--5-6--6-5-----------------||--x--x---x-x--x-x--x-x-----------------||--8--7---2-3--2-3--3-2-----------------||---------------------------------------||---------------------------------------|
breakdown thing|-----------------------------------------------------||-----------------------------------------------------||-----------------------------------------------------||-----------------------------------------------------||-----------------0----------------------3-----8------||---0-0--0-0-0--0-0---0-0--0-0-0--0--0-0-3-0-0-8------|
|-----------------------------------------------------||-----------------------------------------------------||-----------------------------------------------------||-----------------------------------------------------||-----------------0----------------------3-----1------||---0-0--0-0-0--0-0---0-0--0-0-0--0--0-0-3-0-0-1------|
then the chorus till the end
Please rate this tab:
x1.0