The Hell In Me tab with lyrics by Killswitch Engage - Easy chords and tabs for guitar

Killswitch Engage – The Hell In Me tab

KILLSWITCH ENGAGE

THE HELL IN ME

C-G-C-F-A-D



TABBED BY andherembrace




----------------------------------------------------------------------------|----------------------------------------------------------------------------|----------------------------------------------------------------------------|7777---------7777---------777777333333666666666666-7777---------7777--------|5555-0-1-0-1-5555-0-1-0-1-555555111111444444444444-5555-0-1-0-1-5555-0-3-1-0|-----0-1-0-1------0-1-0-1-------------------------------0-1-0-1------0-3-1-0| * * * * * * * * * * * * * * * *
----------------------------------------------------------------------------|----------------------------------------------------------------------------|----------------------------------------------------------------------------|7777---------7777---------777777333333666666666666-7777---------7777--------|5555-0-1-0-1-5555-0-1-0-1-555555111111444444444444-5555-0-1-0-1-5555-0-3-1-0|-----0-1-0-1------0-1-0-1-------------------------------0-1-0-1------0-3-1-0| * * * * * * * * * * * * * * * *
1----------------------------------------------------------------------------|----------------------------------------------------------------------------|----------------------------------------------------------------------------|7777---------7777---------777777333333666666666666-7777---------7777--------|5555-0-1-0-1-5555-0-1-0-1-555555111111444444444444-5555-0-1-0-1-5555-0-3-1-0|-----0-1-0-1------0-1-0-1-------------------------------0-1-0-1------0-3-1-0|
* * * * * * * * * * * * * * * *2----------------------------------------------------------------------------|----------------------------------------------------------------------------|7777---------7777---------777777333333666666666666-7777---------7777--------|7777---------7777---------777777333333666666666666-7777---------7777--------|5555-0-1-0-1-5555-0-1-0-1-555555111111444444444444-5555-0-1-0-1-5555-0-3-1-0|-----0-1-0-1------0-1-0-1-------------------------------0-1-0-1------0-3-1-0| * * * * * * * * * * * * * * * *
1----------------------------------------------------------------------------|----------------------------------------------------------------------------|----------------------------------------------------------------------------|7777---------7777---------777777333333666666666666-7777---------7777--------|5555-0-1-0-1-5555-0-1-0-1-555555111111444444444444-5555-0-1-0-1-5555-0-3-1-0|-----0-1-0-1------0-1-0-1-------------------------------0-1-0-1------0-3-1-0|
* * * * * * * * * * * * * * * *2----------------------------------------------------------------------------|----------------------------------------------------------------------------|7777---------7777---------777777333333666666666666-7777---------7777--------|7777---------7777---------777777333333666666666666-7777---------7777--------|5555-0-1-0-1-5555-0-1-0-1-555555111111444444444444-5555-0-1-0-1-5555-0-3-1-0|-----0-1-0-1------0-1-0-1-------------------------------0-1-0-1------0-3-1-0| * * * * * * * * * * * * * * * *
0:23
1------------------------------------|------------------------------------|------------------------------------|------------------------------------|------------------------------------|-000-0-0-0-000-0-000-0-0-0-000-0----|
*** * * * *** * *** * * * *** *2------------------------------------|------------------------------------|------------------------------------|-----------------P------------------|-0----------------S-----------------|-0-----------------\----------------| *
B-----------------------------------------------------------------|-----------------------------------------------------------------|-----------------------------------------------------------------|-----------------------------------------------------------------|-----------------------------------------------------------------|-000-0-0-0-000-0-000-0-0-0-000-0-000-0-0-0-000-0-000-0-0-0-000-0-| *** * * * *** * *** * * * *** * *** * * * *** * *** * * * *** *
-----------------------------------------------------------------|-----------------------------------------------------------------|-----------------------------------------------------------------|-----------------------------------------------------------------|-----------------------------------------------------------------|-000-0-0-0-000-0-000-0-0-0-000-0-000-0-0-0-000-0-000-0-0-0-000-0-| *** * * * *** * *** * * * *** * *** * * * *** * *** * * * *** *
0:36
-----------------------------------------------------------------|-----------------------------------------------------------------|-----------------------------------------------------------------|-8-8-7-----8-8-7-----8-8-7-----7-7-5-----7-7-5----1010-8-----8---|-5-5-5-----5-5-5-----5-5-5-----3-3-3-----3-3-3-----6-6-6-----6---|-------0-0-------0-0-------0-0-------0-0-------0-0-------0-0---0-| * * * * * * * * * * * * *
-----------------------------------------------------------------|-----------------------------------------------------------------|-----------------------------------------------------------------|-8-8-7-----8-8-7-----8-8-7-----7-7-5-----7-7-5----1010-8-----8---|-5-5-5-----5-5-5-----5-5-5-----3-3-3-----3-3-3-----6-6-6-----6---|-------0-0-------0-0-------0-0-------0-0-------0-0-------0-0---0-| * * * * * * * * * * * * *
0:47
1-------------------------------------------------------------------------|-------------------------------------------------------------------------|
777777771010101010101010999999999999999999999999999999991010101010101010-|xxxxxxxx-x-x-x-x-x-x-x-xxxxxxxxxxxxxxxxxxxxxxxxxxxxxxxxx-x-x-x-x-x-x-x-x-|55555555-8-8-8-8-8-8-8-877777777777777777777777777777777-8-8-8-8-8-8-8-8-|-------------------------------------------------------------------------|
2---------------------------------------------------------|---------------------------------------------------------|---------------------------------------------------------|
33333333333333335555555555555555777777777777777777777777-|11111111111111113333333333333333555555555555555555555555-|---------------------------------------------------------|
1--------------------------------------------------------------------------|--------------------------------------------------------------------------|
33335555777777771010101010101010999999999999999999999999999910109977777777|xxxxxxxxxxxxxxxx-x-x-x-x-x-x-x-xxxxxxxxxxxxxxxxxxxxxxxxxxxxx-x-xxxxxxxxxxx|1111333355555555-8-8-8-8-8-8-8-87777777777777777777777777777-8-87755555555|--------------------------------------------------------------------------|
2-----------------------------------------------------------------|-----------------------------------------------------------------|-----------------------------------------------------------------|
2222555533333333333333335555555555555555777777777777777777777777-|0000333311111111111111113333333333333333555555555555555555555555-|-----------------------------------------------------------------|
0:56
1------------------------------------------------|------------------------------------------------|-----5-5/7~~--/10--9~~-----9~-----------10------|--7---------------------------------------------|------------------------------------------------|------------------------------------------------|
2 harmony -------------------------------------------------|-------------------------------------------------|----9-9/10~~-/14--12~~----12~-----------14-------|-12----------------------------------------------|-------------------------------------------------|-------------------------------------------------|
3 rythm--------------------------------------------------|--------------------------------------------------|--------------------------------------------------|-2--5--3-----------5------------------------------|-0--3--1-----------3------------------------------|--------------------------000-000-000-000-000-000-| *** *** *** *** *** ***
1-------------------------------------------------------|-------------------------------------------------------|---5-5/7~~--/10--9~~---9~----------10-9-7-\------------|-7----------------------------------------------3-5----|------------------------------------------------1-3----|-------------------------------------------------------|
2*3rd harmony note mixed in higher than 2nd which would be 12- see 2nd chorus-------------------------------------------------|-------------------------**----------------------|----9-9/10~~--/14--12~~--17--------14-12-10--\---|-12----------------------------------------------|-------------------------------------------------|-------------------------------------------------|
3 rythm-------------------------------------------------------|-------------------------------------------------------|-------------------------------------------------------|--2--5--3-----------5----------------------------3-5---|--0--3--1-----------3----------------------------1-3---|---------------------------000-000-000-000-0-----------| *** *** *** *** *
1:08
----------------------------------------------------------------------------|----------------------------------------------------------------------------|----------------------------------------------------------------------------|7777---------7777---------777777333333666666666666-7777---------7777--------|5555-0-1-0-1-5555-0-1-0-1-555555111111444444444444-5555-0-1-0-1-5555-0-3-1-0|-----0-1-0-1------0-1-0-1-------------------------------0-1-0-1------0-3-1-0| * * * * * * * * * * * * * * * *
----------------------------------------------------------------------|----------------------------------------------------------------------|----------------------------------------------------------------------|7777---------7777---------777777333333666666666666-7777----------P----|5555-0-1-0-1-5555-0-1-0-1-555555111111444444444444-5555-0-1-0-1---S---|-----0-1-0-1------0-1-0-1-------------------------------0-1-0-1----\--| * * * * * * * * * * * *
1:19
-----------------------------------------------------------------|-----------------------------------------------------------------|-----------------------------------------------------------------|-8-8-7-----8-8-7-----8-8-7-----7-7-5-----7-7-5----1010-8-----8---|-5-5-5-----5-5-5-----5-5-5-----3-3-3-----3-3-3-----6-6-6-----6---|-------0-0-------0-0-------0-0-------0-0-------0-0-------0-0---0-| * * * * * * * * * * * * *
------------------------------------------------------------|------------------------------------------------------------|------------------------------------------------------------|-8-8-7-----8-8-7-----8-8-7-----7-7-5-----7-7-5----1010------|-5-5-5-----5-5-5-----5-5-5-----3-3-3-----3-3-3-----6-6------|-------0-0-------0-0-------0-0-------0-0-------0-0-----0----| * * * * * * * * * * *
1:29
1------------------------------------------------|------------------------------------------------|-5----5---7~~--/10--9~~---------9~---------10---|---8--------------------------------------------|------------------------------------------------|------------------------------------------------|
2 harmony-------------------------------------------------|-------------------------------------------------|-9-----9---10~~-/14--12~~-------12~--------14----|---12--------------------------------------------|-------------------------------------------------|-------------------------------------------------|
3 harmony 2-------------------------------------------------|-------------------------------------------------|-12----12---14~--/19--17~~------17~--------19----|----15-------------------------------------------|-------------------------------------------------|-------------------------------------------------|
4 rythm------------------------------------------------------|------------------------------------------------------|------------------------------------------------------|-2--5--3-------------5--------------------------------|-0--3--1-------------3--------------------------------|------------------------------000-000-000-000-000-000-| *** *** *** *** *** ***
1-----------------------------------------------------|-----------------------------------------------------|-----5-5/7~~--/10--9~~-------9~-------10-9-7-\-------|--7--------------------------------------------------|-----------------------------------------------------|-----------------------------------------------------|
2 harmony-------------------------------------------------|-------------------------------------------------|----9-9/10~~--/14--12~~------12-~-----14-12-10-\-|-12----------------------------------------------|-------------------------------------------------|-------------------------------------------------|
3 harmony 2-------------------------------------------------|-------------------------------------------------|---12-12/14~--/19---17~~------17~----19-17-14--\-|15-----------------------------------------------|-------------------------------------------------|-------------------------------------------------|
4 rythm------------------------------------------------------|------------------------------------------------------|------------------------------------------------------|-2--5--3-------------5--------------------------------|-0--3--1-------------3--------------------------------|------------------------------000-000-000-000-000-000-| *** *** *** *** *** ***
1------------------------------------------------|------------------------------------------------|-----5-5/7~~--/10--9~~---------9~---------10----|--7---------------------------------------------|------------------------------------------------|------------------------------------------------|
2 harmony -------------------------------------------------|-------------------------------------------------|-----9-9/10~~-/14--12~~-------12~--------14------|-12----------------------------------------------|-------------------------------------------------|-------------------------------------------------|
3 harmony 2-------------------------------------------------|-------------------------------------------------|----12-12/14~--/19--17~~------17~--------19------|-15----------------------------------------------|-------------------------------------------------|-------------------------------------------------|
4 rythm----------------------------------------------------------|----------------------------------------------------------|----------------------------------------------------------|-2--5--33333333-555555555---------------------------------|-0--3--11111111-333333333---------------------------------|---------------------------000-000-000-000-000-000-000-000| ******** ********* *** *** *** *** *** *** *** ***
1-----------------------------------------------------|-----------------------------------------------------|-----5-5/7~~--/10--9~~-------9~-------10-9-7-\-------|--7--------------------------------------------------|-----------------------------------------------------|-----------------------------------------------------|
2 harmony-------------------------------------------------|-------------------------------------------------|----9-9/10~~--/14--12~~------12-~-----14-12-10-\-|-12----------------------------------------------|-------------------------------------------------|-------------------------------------------------|
3 harmony 2-------------------------------------------------|-------------------------------------------------|---12-12/14~--/19---17~~------17~----19-17-14--\-|15-----------------------------------------------|-------------------------------------------------|-------------------------------------------------|
4 rythm-------------------------------------------------------|-------------------------------------------------------|-------------------------------------------------------|-2--5--33333333-555555555------------------------------|-0--3--11111111-333333333--------------------------\---|---------------------------000-000-000-000-000-000-\---| ******** ********* *** *** *** *** *** ***
1:50
B------------------------------------------------------------------|------------------------------------------------------------------|------------------------------------------------------------------|--------------------------------------5-------3-------1-------0---|--------5---------6-----------5-------5-------3-------1-------0---|-0-3/-6---0-0-3/7---0-0-3/--6---6-5-3---0-0-0---4-3-1---3-1-0-----| * * * * * * * * * * * * * * * * *
------------------------------------------------------------------|------------------------------------------------------------------|------------------------------------------------------------------|--------------------------------------5-------3-------1-------0---|--------5---------6-----------5-------5-------3-------1-------0---|-0-3/-6---0-0-3/7---0-0-3/--6---6-5-3---0-0-0---4-3-1---3-1-0-----| * * * * * * * * * * * * * * * * *
1-----------------------------------------------------------------|-----------------------------------------------------------------|-----------------------------------------------------------------|--------7---------8-----------7-------5-------3-------1-------0--|---5/-8-------5/9-------5/--8---------5-------3-------1-------0--|-0--------0-0-------0-0---------6-5-3---0-0-0---4-3-1---3-1-0----|
* * * * * * * * * * * * * * * * *2-----------------------------------------------------------------|-----------------------------------------------------------------|-----------------------------------------------------------------|--------------------------------------5-------3-------1-------0--|--------5---------6-----------5-------5-------3-------1-------0--|-0-3/-6---0-0-3/7---0-0-3/--6---6-5-3---0-0-0---4-3-1---3-1-0----| * * * * * * * * * * * * * * * * *
B------------------------------------------------------------------|------------------------------------------------------------------|------------------------------------------------------------------|--------------------------------------5-------3-------1-------0---|--------5---------6-----------5-------5-------3-------1-------0---|-0-3/-6---0-0-3/7---0-0-3/--6---6-5-3---0-0-0---4-3-1---0-0-0-0---| * * * * * * * * * * * * * * * * * |
2:11
---------1---------------3-----------------5-----------8-----------|-------1---1-----------3---3-----------5-6---6---------------------|-----3-------3-------5-------5-------7---------5-----7-------5-----|---3-----------3---5-----------5---7---------------7-------7-------|-1---------------3---------------5---------------5-------5---------|-------------------------------------------------------------------|
---------1---------------3----------------|-------1---1-----------3---3--------------|-----3-------3-------5-------5------------|---3-----------3---5-----------5---P------|-1---------------3------------------S--\--|---------------------------------------\--|
2:22
1-------------------------------------------------------------------------|-------------------------------------------------------------------------|
777777771010101010101010999999999999999999999999999999991010101010101010-|xxxxxxxx-x-x-x-x-x-x-x-xxxxxxxxxxxxxxxxxxxxxxxxxxxxxxxxx-x-x-x-x-x-x-x-x-|55555555-8-8-8-8-8-8-8-877777777777777777777777777777777-8-8-8-8-8-8-8-8-|-------------------------------------------------------------------------|
2---------------------------------------------------------|---------------------------------------------------------|---------------------------------------------------------|
33333333333333335555555555555555777777777777777777777777-|11111111111111113333333333333333555555555555555555555555-|---------------------------------------------------------|
1--------------------------------------------------------------------------|--------------------------------------------------------------------------|
33335555777777771010101010101010999999999999999999999999999910109977777777|xxxxxxxxxxxxxxxx-x-x-x-x-x-x-x-xxxxxxxxxxxxxxxxxxxxxxxxxxxxx-x-xxxxxxxxxxx|1111333355555555-8-8-8-8-8-8-8-87777777777777777777777777777-8-87755555555|--------------------------------------------------------------------------|
2-----------------------------------------------------------------|-----------------------------------------------------------------|-----------------------------------------------------------------|
2222555533333333333333335555555555555555777777777777777777777777-|0000333311111111111111113333333333333333555555555555555555555555-|-----------------------------------------------------------------|
1------------------------------------------------|------------------------------------------------|-----5-5/7~~--/10--9~~---------9~---------10----|--7---------------------------------------------|------------------------------------------------|------------------------------------------------|
2 harmony ------------------------------------------------|------------------------------------------------|-----9-9/10~~-/14--12~~-------12~--------14-----|-12---------------------------------------------|------------------------------------------------|------------------------------------------------|
3 harmony 2------------------------------------------------|------------------------------------------------|-----12-12/14~--/19--17~~------17~--------19----|-15---------------------------------------------|------------------------------------------------|------------------------------------------------|
4 rythm------------------------------------------------------|------------------------------------------------------|------------------------------------------------------|-2--5--3-------------5--------------------------------|-0--3--1-------------3--------------------------------|------------------------------000-000-000-000-000-000-| *** *** *** *** *** ***
1-----------------------------------------------------|-----------------------------------------------------|-----5-5/7~~--/10--9~~-------9~-------10-9-7-\-------|--7--------------------------------------------------|-----------------------------------------------------|-----------------------------------------------------|
2 harmony-------------------------------------------------|-------------------------------------------------|----9-9/10~~--/14--12~~------12-~-----14-12-10-\-|-12----------------------------------------------|-------------------------------------------------|-------------------------------------------------|
3 harmony 2-------------------------------------------------|-------------------------------------------------|---12-12/14~--/19---17~~------17~----19-17-14--\-|15-----------------------------------------------|-------------------------------------------------|-------------------------------------------------|
4 rythm------------------------------------------------------|------------------------------------------------------|------------------------------------------------------|-2--5--3-------------5--------------------------------|-0--3--1-------------3--------------------------------|------------------------------000-000-000-000-000-000-| *** *** *** *** *** ***
1------------------------------------------------|------------------------------------------------|-----5-5/7~~--/10--9~~---------9~---------10----|--7---------------------------------------------|------------------------------------------------|------------------------------------------------|
2 harmony ------------------------------------------------|------------------------------------------------|-----9-9/10~~-/14--12~~-------12~--------14-----|-12---------------------------------------------|------------------------------------------------|------------------------------------------------|
3 harmony 2------------------------------------------------|------------------------------------------------|-----12-12/14~--/19--17~~------17~--------19----|-15---------------------------------------------|------------------------------------------------|------------------------------------------------|
4 rythm------------------------------------------------------|------------------------------------------------------|------------------------------------------------------|-2--5--3-------------5--------------------------------|-0--3--1-------------3--/--\--------------------------|------------------------/--\--000-000-000-000-000-000-| * *** *** *** *** *** ***
1-----------------------------------------------------|-----------------------------------------------------|-----5-5/7~~--/10--9~~-------9~-------10-9-7-\-------|--7--------------------------------------------------|-----------------------------------------------------|-----------------------------------------------------|
2 harmony-------------------------------------------------|-------------------------------------------------|----9-9/10~~--/14--12~~------12-~-----14-12-10-\-|-12----------------------------------------------|-------------------------------------------------|-------------------------------------------------|
3 harmony 2-------------------------------------------------|-------------------------------------------------|---12-12/14~--/19---17~~------17~----19-17-14--\-|15-----------------------------------------------|-------------------------------------------------|-------------------------------------------------|
4 rythm------------------------------------------------------|------------------------------------------------------|------------------------------------------------------|-2--5--3-------------5--------------------------------|-0--3--1-------------3--------------------------------|------------------------------000-000-000-000-000-000-| *** *** *** *** *** ***
B---------------|---------------|---------------|---------------|---------------|-000-000-------| *** ***
Please rate this tab:
x1.0