King Crimson - One Time tab

-------------------------------------------------------------------------------
			     One Time - King Crimson
-------------------------------------------------------------------------------
Tabbed by: The Esb
Email: theesberer@gmail.com

intro:|------------8-------8---|11------11--13------13--||8-------8---------------|------------------------||------------------------|------------------------||10----------------------|------------------------||------------------------|------------------------||------------------------|------------------------|
| | | | | ||------------------------|10------10--11------11--||------------8-------8---|------------------------||------------------------|------------------------||10----------------------|------------------------||------------------------|------------------------||------------------------|------------------------|
| | | | | ||------------------------|8-------8---10------10--||------------------------|------------------------||------------10------10--|------------------------||------------------------|------------------------||11----------------------|------------------------||------------------------|------------------------|
| | | | | ||------------------------|10------10--11------11--||------------8-------8---|------------------------||------------------------|------------------------||------------------------|------------------------||8-----------------------|------------------------||------------------------|------------------------|
3rd time repeat 3 times and end with:
|---8----8---------------| |---8----8---------------| |------------------------| |---10---10--------------| |------------------------| |------------------------|
Intro verse:| | | | | ||------------------------|------------------------||------------------------|------------------------||------------------------|------------------------||------------------------|------------------------||------------------------|------------------------||3-3-3-3-3-3-3---3-------|3-3-3-3-3-3-3---3-------| X3
Verse:| | | | | ||------------------------|------------1-----------||------------------------|----------------4-------||------------------------|-----------------5------||------------------------|------------------------||------------------------|------------------------||3-3-3-3-3-3-3---3-------|3-3-3-3-3-3-3---3-------|
| | | | | ||------------------------|------------1-----------||------------------------|---------------------3--||------------------------|---------------------3--||------------------------|------------------------||------------------------|------------------------||------------------------|------------------------|
| | | | | ||------------------------|------------1-----------||------------------------|--------------------4---||------------------------|--------------------5---||------------------------|------------------------||------------------------|------------------------||------------------------|------------------------|
| | | | | ||------------------------|-------------1----------||------------------------|--------------------3---||------------------------|--------------------3---||------------------------|------------------------||------------------------|------------------------||------------------------|------------------------|
| | | | | ||------------------------|------------------------||------------------------|-------------4------1---||------------------------|--------------------1---||------------------------|------------------------||------------------------|------------------------||------------------------|------------------------|
| | | | | ||------------------------|------------------------||------------------------|------------3-------3---||------------------------|--------------------3---||------------------------|------------------------||------------------------|------------------------||------------------------|------------------------|
| | | | | ||------------------------|------------1-----------||------------------------|--------------------4---||------------------------|--------------------5---||------------------------|------------------------||------------------------|------------------------||------------------------|------------------------|
| | | | | ||------------------------|------------1-----------||------------------------|--------------------3---||------------------------|--------------------3---||------------------------|------------------------||------------------------|------------------------||------------------------|------------------------| x 2
| | | | | ||------------------------|------------------------||------------------------|------------4--------1--||3-----------------------|---------------------1--||------------------------|------------------------||------------------------|------------------------||------------------------|------------------------|
| | | | | ||------------------------|------------------------||------------------------|------------4---------3-||------------------------|----------------------3-||------------------------|------------------------||------------------------|------------------------||------------------------|------------------------|
This is the Chorus:|--3---------3-----------|3-----------3-----------||--4---------4-----------|4-----------4-----------||--5---------5-----------|5-----------5-----------||------------------------|------------------------||------------------------|------------------------||------------------------|------------------------|
| | | | | ||3-----------3-----------|-3----------------------||3-----------3-----------|-3----------------------||3-----------3-----------|-3----------------------||------------------------|------------------------||------------------------|------------------------||------------------------|------------------------|
| | | | | ||-3----------------------|3--------------3--------||-4----------------------|4--------------4--------||-5----------------------|5--------------5--------||------------------------|------------------------||------------------------|------------------------||------------------------|------------------------|
| | | | | ||3-----------------------|3-----------3-----------||3-----------------------|3-----------3-----------||3-----------------------|3-----------3-----------||------------------------|------------------------||------------------------|------------------------||------------------------|------------------------|
| | | | | ||1-----------------------|-------------1----------||1-----------------------|-------------1----------||1-----------------------|-------------1----------||------------------------|------------------------||------------------------|------------------------||------------------------|------------------------|
| | | | | ||----------------3-------|----------------3-------||----------------3-------|----------------1-------||----------------3-------|----------------0-------||------------------------|------------------------||------------------------|------------------------||------------------------|------------------------|
| | | | | ||------3---------1-------|----------------1-------||------3---------1-------|----------------1-------||------3-----------------|----------------1-------||------------------------|------------------------||------------------------|------------------------||------------------------|------------------------|
| | | | | ||------1---------3-------|----------------1-------||------1---------3-------|----------------1-------||------1---------3-------|----------------1-------||------------------------|------------------------||------------------------|------------------------||------------------------|------------------------|
| | | | | ||------------3-----------|-------------1----------||------------4-----------|--------------------3---||------------5-----------|--------------------3---||------------------------|------------------------||------------------------|------------------------||------------------------|------------------------|
| | | | | ||--3---------------------|3-------------3---------||--4---------------------|4-------------4---------||--5---------------------|5-------------5---------||------------------------|------------------------||------------------------|------------------------||------------------------|------------------------|
| | | | | ||3-----------------------|3-----------3-----------||3-----------------------|3-----------3-----------||3-----------------------|3-----------3-----------||------------------------|------------------------||------------------------|------------------------||------------------------|------------------------|
| | | | | ||1-----------------------|-----------1------------||1-----------------------|-----------1------------||1-----------------------|-----------1------------||------------------------|------------------------||------------------------|------------------------||------------------------|------------------------|
| | | | | ||----------------3-------|----------------3-------||----------------3-------|----------------1-------||----------------3-------|----------------0-------||------------------------|------------------------||------------------------|------------------------||------------------------|------------------------|
| | | | | ||--------3---------------|----------------1-------||--------3---------------|----------------1-------||--------3---------------|----------------1-------||------------------------|------------------------||------------------------|------------------------||------------------------|------------------------|
| | | | | ||------1---------3-------|----------------1-------||------1---------3-------|----------------1-------||------1---------3-------|----------------1-------||------------------------|------------------------||------------------------|------------------------||------------------------|------------------------|
| | | | | ||------------3-----------|--------------1---------||------------4-----------|--------------------3---||------------5-----------|--------------------3---||------------------------|------------------------||------------------------|------------------------||------------------------|------------------------|
|------------------------|------------1-----------||------------------------|--------------------4---||------------------------|--------------------5---||------------------------|------------------------||------------------------|------------------------||------------------------|------------------------|
|------------------------|------------1-----------||------------------------|--------------------3---||------------------------|--------------------3---||------------------------|------------------------||------------------------|------------------------||------------------------|------------------------|
This pattern is repeated 2 times.
Tap to rate this tab
 
# A B C D E F G H I J K L M N O P Q R S T U V W X Y Z