Kotaro Oshio - Cant Take My Eyes Off You tab

Title: Can't Take My Eyes Off You
Artist: Kotaro Oshio
Album: Tussie Mussie
Copyright: songsterr.com
Tempo = 115
Steel Guitar

Legend
L - tied note
x - dead note
h - hammer on/pull off
b - bend
s - slide
~ - vibrato
g - ghost note
> - accentuated note
t - trill
M - palm mute
. - staccato
P - popping (bass)
S - slapping (bass)
+ - tapping
W - wide vibrato
< - fade in
w - whammy bar
= - tremolo picking
v - brush up
^ - brush down
V - pick stroke up
n - pick stroke down

vE |--0-------------------------|--7--------------5--4--5----|B |--0-----------7-------------|--------0-------------------|G |--8-----8-----------8-------|-----7-----7-----6----------|D |--9--9-----9-----9----------|----------------------------|A |--0L-0L-0L-0L-0L-0L-0--0----|--0-------------------------|E |----------------------------|----------------------------|
--0--------------------7L---|--7-----------0-------------|--------0--------0----------|--------0--------0----------|-----------6--------6-------|-----------6--------0-------|-----7--------7-------------|-----7--------------0-------|--0L-0L-0L-0L-0L-0L-0L-0L---|--0-------------------------|----------------------------|----------------------------|
^----------------------------|--7--------------5--4--5----|--------x-----7-----x-------|--------x-------------------|--8-------------------------|--7--------------6----------|--9-------------------------|----------------------------|--0--0-----0L-0--0-----0L---|--0--0L-0L-0----------------|----------------------------|----------------------------|
--0-----x--------------0L---|--0--0-----------0----------|--------0-----0--------0L---|--0--0--x--------0--x-------|--------6--------6-----6L---|--6-----6L-6L-6-------------|-----------------------7L---|--7-------------------------|--0--0-----0L-0-----0--0L---|--0--------0--0-------------|----------------------------|----------------------------|
^----------------------------|--7--------------5--4-------|--------x-----7-----x-------|--------x-------------------|--8-------------------------|--7-----------0--6----------|--9-------------------------|----------------------------|--0--0-----0L-0--0-----0L---|--0--0-----0L-0-------------|----------------------------|----------------------------|
--7--5--x--4-----5--7s-9----|--7--5--x--4-----5--7s-9----|----------------------------|----------------------------|--7--6--x--4-----6--7s-9----|--7--6--x--4-----6--7s-9----|----------------------------|----------------------------|--0--------0L-0-------------|--0--------0L-0-----0-------|----------------------------|----------------------------|
--7-------------------------|--7--------------5--4--5----|--------x-----7-----x-------|--------x-------------------|--8-----------8-------------|--7-----------0--6----------|-----9----------------------|----------------------------|--0--------0L-0--0-----0L---|--0--0-----0L-0-------------|----------------------------|----------------------------|
--7--5--x--4--x--5-----7s---|--------------------x-------|--7--6--x--4--x--6-----7s---|----------------------------|--0--------0L-0--0-----0L---|----------------------------|
--9-----9-----9-------------------------------------|--------------------------5--------5--------5-------|--9-----9-----9-----------6--------6--------6-------|----------------------------------------------------|--0-----0-----0-------------------------------------|----------------------------------------------------|
----------------------------------------------------|--7--------5--x-----4-----5-------------------------|--6-----------x-----5-----6-----6-----x-------------|--------------------------------7-----x-----7L------|--0-----------------0-----0-------------------------|----------------------------------------------------|
----------------------------------------------------|--------------------------5--------5--x-----5-------|--------6-----x-----------6--------6--x-----6-------|--7-----7-----x-----------------------------6-------|--0-----------------0L----0-------------------------|----------------------------------------------------|
----------------------------|--7-----x--5----------------|--6--------6--------x-------|--6--------6-----6--x--6----|--0--------0-----------0----|----------------------------|
^----------------------------------------------------|--------------x-----------5--------5--x-----0-------|--6-----6-----------6-----6--------6--x-----0-------|--6-----6-----------------6--------6----------------|--0-----------------0L----0-------------------------|----------------------------------------------------|
----------------------------------------------------|--7--------5--x-----4-----5-------------------------|--6--------6--x-----5-----6-----------x-----6-------|--------------------------------5-----x-----5-------|--0-----------------0-----0-----------------0-------|----------------------------------------------------|
----------------------------|--------------------0-------|--------------5-----5-------|--5s-3--x--3--x--2----------|--------x-----6--6--6--0----|--------2--------2----------|--5--5--x-------------------|--0--------0L-0--------0L---|--0--------0L-0-------------|----------------------------|----------------------------|----------------------------|
----------------------------------------------------|--3-----------x-----------3--------3--x-----3-------|--2-----------------------2--------2--------0-------|--0-----0-----------0L----0-------------------------|----------------------------------------------------|----------------------------------------------------|
--0-------------------------|----------------------------|--3-----3--2--3-----x-------|-----3--x-----3--3--x-------|-----------------2L-2L-2L---|--2--2--------2--2----------|----------------------------|----------------------------|--2L----2L-2L-2L-2L-2--2L---|--2--------2L-2--------0----|----------------------------|----------------------------|
----------------------------------------------------|--3-----------x-----2-----------3s-------3s---------|--2-----------------2-----------4s-------4s---------|----------------------------------------------------|--0-----------------0L----0-------------------------|----------------------------------------------------|
----------------------------------------------------|--2-----------x-----------2--------2--x-----2-------|--2-----------------------2--------2--x-----2-------|--------2-------------------------------------------|--0-----------------0L----0-------------------------|----------------------------------------------------|
----------------------------|--------x-----------x-------|--6--4--6-----4-------------|-----4--4-----4-------------|--0--------0L-0--0-----0L---|----------------------------|
----------------------------------------------------|--3-----------x-----------------------x-------------|--4-----------------------4--------2--------1-------|--4-----------------------4--------2--------2-------|--0-----------------0L----0-------------------------|----------------------------------------------------|
----------------------------|--0-----x-----------x--0----|-----2-----1L-1--2--1--1----|-----2-----2L-2--2----------|--0--------0L-0--------0----|----------------------------|
----------------------------------------------------|--------2-----2-----------5--------5--------5-------|--------2-----2-----------6--------6--------6-------|----------------------------------------------------|--------0-----0-------------------------------------|----------------------------------------------------|
--------x-------------------|--7-----5--4--5-------------|--7-----6--5--6-----x-------|-----------------7--x--7L---|--0--------0--0--------0L---|----------------------------|
--------------------------------------x-----5-------|--------5-----x-----------5--------5--x-----5-------|--------6-----x-----------6--------6----------------|--7-------------------------------------------------|--0-----------------0L----0-------------------------|----------------------------------------------------|
----------------------------|--7-----x--5--x-----x--5L---|--6--------6-----6-----6L---|-----------------6----------|--0L----0--0L-0--------0L---|----------------------------|
----------------------------------------------------|--5-----7-----x-----------5--------5--------0-------|--6-----6-----------------6--------6--------0-------|--------6--------------------------6----------------|--0-----------------0L----0-------------------------|----------------------------------------------------|
----------------------------------------------------|--7--------5--x-----4-----5-------------------------|--6--------6--x-----5-----6-----------x-------------|--------------------------------5-----x-----5L------|--0-----------------0-----0-------------------------|----------------------------------------------------|
----------------------------|--------------------0-------|--------------5-----5-------|--5--3--x--3-----2--x-------|-----6--x-----6--6--6-------|--4--2-----2-----2----------|--5--5--x--------5-----0----|--0--------0-----0-----0L---|--0L-0L-0--0L-0-------------|----------------------------|----------------------------|----------------------------|
----------------------------------------------------|--3-----------x-----------3--------3--x-------------|--2-----------------------2--------2--------0-------|--0-----0-----------0L----0-----------0-------------|----------------------------------------------------|----------------------------------------------------|
--0-------------------------|----------------------------|--3-----3--2--3-----x-------|--------x-----3-----x-------|-----------------2L-2L-2L---|--2--2--------2-------------|----------------------------|----------------------------|--2L----2L-2L-2L-2L-2--2L---|--2--------2L-2--------0----|----------------------------|----------------------------|
----------------------------|--3-----x--2-----3-----2L---|--2--------2-----4-----2L---|----------------------------|--0-------------------------|----------------------------|
----------------------------------------------------|--2-----------x-----------2--------2--x-----2-------|--2-----------------------2--------2--x-----2-------|--------2-------------------------------------------|--0-----------------0L----0-------------------------|----------------------------------------------------|
----------------------------|----------------------------|--6--4--6-----4-------------|-----4--4-----4-------------|--0--------0L-0--0-----0L---|----------------------------|
----------------------------------------------------|--3-----------x-------------------------------------|--4-----------------------4--------2--x-----1-------|--4-----------------------4--------2--x-----2-------|--0-----0-----------0L----0-------------------------|----------------------------------------------------|
--------------------0-------|----------------------------|--0-----------------0--2----|--0-----------------x-------|-----2--x--1--x--2--1-------|-----2--x--1-----2----------|-----2--x--2--x--2----------|-----2--x--2-----2----------|--0--------0----------------|--0--------0----------------|----------------------------|-----------------------0----|
----------------------------------------------------|--6-----------7-----------6-----------7-------------|--7-----------7-----------7-----------7-------------|----------------------------------------------------|----------------------------------------------------|--7-----------------7-----7-----------------0-------|
--------x-------------------|--6-----7--10----9--x--7----|--7-----7--11----9-----7----|----------------------------|----------------------------|--0--------0-----0----------|
--------------x-----------------------x-------------|--6-----------7-----------6-----------7-------------|--6-----------6-----------6-----------6-------------|--------------------------6-------------------------|--0-----------------0-----------------------0-------|----------------------------------------------------|
--------x-------------------|--6-----7--10----9--x--7----|--6-----6--------------0----|-----------11----9----------|--0--------0-----0----------|----------------------------|
--------------x-----------------------x-------------|--6-----------7-----------6-----------7-------------|--7-----------7-----------7-----------7-------------|----------------------------------------------------|----------------------------------------------------|--7-----------------7-----7-----------------0-------|
----------------------------|--6-----7--10----9--x--7----|--7-----7--11----9-----7----|----------------------------|----------------------------|--0--------0-----0----------|
--------------x-------------------------------------|--6-----------7-----------6-----------7-------------|--6-----------6-----------6-----------6-------------|----------------------------------------------------|--0-----------------0L----0L----------0-------------|--------------------------------------------2-------|
--5-------------------------|--------9-----9-----9-------|--5-------------------------|--------9-----9-----9--0----|--3--------------3----------|--------9-----9-----9--0----|-----------------2----------|--------8-----8-----8-------|--------4--4--4--4--4--4----|--4-----9-----9-----9-------|--2-----2--2--2--2--2--2----|--2-------------------------|
--9-----------------x--7----|--9--9--x--7--------x-------|-----7--x--7-----9--10-7----|--7--7--x--7-----10-9--10---|-----7--x--7--7--7----------|--7--------------7--7-------|----------------------------|----------------------------|----------------------------|----------------------------|--7--------7L-7-------------|--0--------0----------------|
--------------------x-------|----------------------------|--12----x-----------9--10---|--12-12-x--10----9--x--9----|--9--9-----9-----11-9-------|-----9-----9-----9--11------|-----9-----9-----9----------|--------------------11------|----------------------------|--9--------9----------------|--9--------9----------------|----------------------------|
----------------------------|--10----x-----x-------------|--7--7-----7-----7--x-------|--------------------x-------|----------------------------|--7L-7L-7--7L-7--------0----|
----------------------------------------------------|--10----10----x-----9-----------10----9-------------|----------------------------------------------------|--7-----7-----------6-----------7-----6-------------|----------------------------------------------------|--0-----0-----------0-----------------0-----0-------|
^ ^ ^----------------------------|--------9-----9-----9-------|--7-------------------------|--x-----9-----9-----9-------|-----------------6--6--6----|--x-----9-----9-----9-------|--4-----------4--4--4--4----|--x-----8-----8-----8-------|--0-----0--0--0-----0-------|--x-----9-----9-----9-------|----------------------------|----------------------------|
--9--------------------7----|--9--9--x--7--------x-------|-----7--x--7-----9--10-7----|--7--7--x--7-----10-9--10---|-----7-----7--7--7----------|--7--7-----------7-----7----|----------------------------|----------------------------|----------------------------|----------------------------|--7--------7L-7-------------|--0--------0----------------|
--------------------x-------|----------------------------|--12----x-----------9--10---|--12-12-x--10----9--x--9----|--9--9-----9-----11-9-------|-----9-----9-----9--11------|-----9-----9-----9----------|--------------------11------|----------------------------|--9--------9----------------|--9--------9----------------|----------------------------|
-----------7----------------|----------------------------|--10----x--7--------7-------|--x--9--x-----10----7-------|--7-----------------7-------|-----7--------7-----7-------|----------------------------|----------------------------|----------------------------|----------------------------|--7--------7-----7L-7L------|--7--7-----7L-7--------0----|
--5-----x--7--------7L------|--------0--------0--0L------|--------0--------0--0L------|--------------------0L------|----------------------------|--3--------3--------3L------|
--7-----7-------------------------------------------|--0-----0-----x-----------8--------8--------8-------|--0-----0-----x-----------9--------9--------9-------|--0-----0-----x-------------------------------------|--------------x-------------------------------------|--3-----------------0-------------------------------|
----------------------------------------------------|--10-------8--x-----7-----8-------------------------|--9--------9--x-----8-----9-----9-----x-------------|--------------------------------10----x-----10L-----|----------------------------------------------------|--8-----------------8-----8-------------------------|
----------------------------------------------------|--------8-----x-----------8--------8--x-----8-------|--------9-----x-----------9--------9--x-----9-------|--10------------------------------------------------|----------------------------------------------------|--8-----------------8-----8-------------------------|
----------------------------|--10----x--8--------x--8L---|--9-----x--9-----9--x--9L---|-----------9-----9----------|----------------------------|--8--------8-----------8----|
----------------------------------------------------|--8-----10----x-----------8--------8--x-----0-------|--9-----9-----------------9--------9--x-----0-------|--------------0-------------------------------------|----------------------------------------------------|--------------------8L----8-------------------------|
----------------------------------------------------|--10-------8--x-----7-----8-----------x-------------|--9--------9--x-----8-----9-------------------------|-----------8----------------------------------------|----------------------------------------------------|--8-----------------------------8-----------8-------|
----------------------------|--3--------1-----0--3-------|--------------8-----8-------|--1-----x--1-----0--1-------|-----9--x-----9--9--9-------|----------------------------|-----8--x--------8----------|----------------------------|----------------------------|----------------------------|--8--------8L-8--------0----|--1--------1-----------1----|
--1-----------------------1--------1--------1-------|--1-----------x-----------1--------1--x-----1-------|--------------------------2-------------------------|----------------------------------------------------|----------------------------------------------------|--1-----1-----------1L----1-------------------------|
--3-----1--0--1-------------|--1-----x--0--1--1--x--1----|--1--------------1--x--1----|----------------------------|----------------------------|--1-----------1--------1L---|
--------------------------1--------1--x-------------|--x-----------x-----------1--------1----------------|--------1-----------1-------------------------------|--------0-----------0-------------------------------|--------------------------------------------0-------|--1-----------------1L----1-------------------------|
--1--------0--------1-------|--1-----x--1----------------|--------0--------0-----0----|----------------------------|--3--------3----------------|----------------------------|
--0-----------------------0--------0L-0-----0-------|--------------x-------------------------------------|--------0-------------------------------------------|----------------------------------------------------|--3-----------------0L----0-------------------------|----------------------------------------------------|
--0-----0-------------------|-----3--------3-----x--3L---|-----2--------2--------2L---|-----4----------------------|--3--------3L-3--3----------|----------------------------|
----------------------------------------------------|--3-----------x-----------3--------1--------0-------|--2-----2-------------------------------------------|--------------------------------------0-------------|--3-----------------3L----3-------------------------|----------------------------------------------------|
v-----------------------0----|----------------------------|--3--1--x--0--x--1h-3-------|--3--1--x--0-----1--x--x----|-----0--x-----x--0----------|--0--0--x--0-----0--x--x----|----------------------------|-----------------------x----|--3--------3-----3----------|--3--------3-----3-----x----|----------------------------|----------------------------|
^ ^ ^--5-------------------------|--------9-----9-----9-------|--5--------------5--5--5----|--5-----9-----9-----9-------|--3--------------3--3--3----|--3-----9-----9-----9-------|-----------------2--2--2----|--2-----8-----8-----8-------|--------4--4--4--4--4--4----|--4-----9-----9-----9-------|--2-----2--2--2--2--2--2----|--2-------------------------|
^ v--7s----------x-----------------------------0-------|--7s-------------------x--------x-----0-----0L------|--7s-------------------x--------x-----0-----2L------|--7s-------------------x--------x-----0-----0L------|-----------------------x--x-----------------2L------|--7-----------------------x-----------------0L------|
--------0--------------0L---|--0--------------------2----|--0-----0-----x--0-----0L---|--0--------------------2----|--2-----2--------2-----1L---|--1-----1-----1--------3----|--0-----0--------------2L---|--2--2--2-----2--------2----|--2-----2--------------0L---|--0--0--0-----0--0h-4--4----|--0--0--0-----0-----0-------|-----------------------2----|
----------------------------------------------------|----------------------------------------------------|----------------------------------------------------|--------0-----------6-----------7-----------8-------|--------0-------------------------------------------|--------------4-----------5-----------6-------------|
^--------7-----x--------0L---|--0-----0--------0-----0L---|--------7--------0-----0L---|--0-----0--------0-----0L---|--------7--------0-----2L---|--2-----2--------2-----1L---|--------7--------------0L---|--0-----0--------0-----2L---|-----------------------2L---|--2-----2--------2-----0L---|--7-----------------0--0L---|--0--0--0--0--0--0----------|
^ ^ ^--0-----0-----0--0h-2--2----|--------9-----9-----9-------|--0-----0-----0--0h-3--3----|--------9-----9-----9-------|--1-----1-----1--0h-3--3----|--------9-----9-----9--0----|--2-----2-----2--0h-2--2----|--------8-----8-----8-------|--0--0--0--0--0-------------|--------9-----9-----9-------|-----------------------2----|----------------------------|
--9-----------------x--7----|--9--9--x--7--------x-------|-----7--x--7--7--9--10-7----|--7--7--x--7-----10-9--10---|-----7--x--7--7--7--7-------|--7--------------7--7-------|----------------------------|----------------------------|----------------------------|----------------------------|--7--------7L-7-------------|--0--------0----------------|
--------------------x-------|----------------------------|--12----x-----------9--10---|--12-12-x--10----9--x--9----|--9--9-----9-----11-9-------|-----9-----9-----9--11------|-----9-----9-----9----------|--------------------11------|----------------------------|--9--------9----------------|--9--------9----------------|----------------------------|
----------------------------|--10----x-----------x-------|--7--7-----7-----7--7-------|-----7-----7-----7--7-------|----------------------------|--7--------7-----------0----|
----------------------------------------------------|--10----10----x-----9-----------10----9-------------|----------------------------------------------------|--7-----7-----------6-----------7-----6-------------|----------------------------------------------------|--0-----0-----------0-----------------------0-------|
^ ^ ^----------------------------|-----0--9-----9-----9-------|--7-----------7--7-----7----|--x-----9-----9-----9-------|-----------6--6--6--6--6----|--x-----9-----9-----9-------|--4--------4--4--4--4--4----|--x-----8-----8-----8-------|--0-----0--0--0-----0-------|--x--9--9-----9-----9-------|----------------------------|----------------------------|
--9--------------------7----|--9--9--x--7--------x-------|-----7--x--7-----9--10-7----|--7--7--x--7-----10-9--10---|-----7--x--7-----7----------|-----7-----7-----7-----7----|----------------------------|----------------------------|----------------------------|----------------------------|--7--------7----------------|--0--------0----------------|
--------------------x-------|----------------------------|--12----x-----x-----9--10---|--12-2--x--10----9--x--9----|--9--9-----9-----11-9-------|-----9-----9-----9--11-9----|-----9-----9-----9----------|--------------------11------|----------------------------|--9--------9----------------|--9--------9L-9-------------|----------------------------|
-----------7----------------|----------------------------|--10----x--7--------7L------|--7--9--x-----10----7-------|--7-----------------7L------|--7--7--x-----7-----7-------|----------------------------|----------------------------|----------------------------|----------------------------|--7--------7-----7L-7L------|--7--------7L-7--7-----0----|
--5--------7--------7L------|--7-------------------------|--0-----0-----------0L------|--0--0-----0--0--0-----x----|--------0--------0--0L------|--0--0-----0--0--0----------|-----------------0--0L------|--0--------0--0--0----------|----------------------------|----------------------------|--3--------3--------3L------|--3-------------------------|
^--0-----0--0--------0-------|-----0-----0-----0----------|--0-----0--0--------0-------|-----0-----0-----0----------|--6-----6--6--------6-------|-----6-----6-----6--0-------|--7-----7--7--------7-------|-----7-----7-----7----------|--0-----0--0--------0-------|-----0-----0-----0----------|-----------------x----------|--x--------------------0----|
----------------------------|--7--------------5--4--5----|--------x-----7-----x-------|--------x-----x-------------|--8-----x-----8-----x-------|--7--------------6----------|----------------------------|----------------------------|--0--0-----0--0--0-----0----|--0--0-----0L-0-------------|----------------------------|----------------------------|
--0--------------------0L---|--0-------------------------|--------------0-----x-------|--------x-----0-----x-------|--------6--------6----------|-----6--x-----6--6----------|-----7----------------------|-----------------7----------|--0--------0L-0--------0L---|--0--------0L-0--------0L---|----------------------------|----------------------------|
----------------------------|--7--------------5--4--5----|--7-----x-----7-----x-------|--------x-----x-------------|--8-----------8-----x-------|--7--------------6----------|----------------------------|----------------------------|--0--0-----0L-0--0-----0L---|--0--0-----0L-0-------------|----------------------------|----------------------------|
--0-----------------------------------------------------------------------0-----|--------------------------------0-----------------------------------------------|-----------------------------------------------6--------------------------------|-----------------6--------------------------------------------6-----------------|--0-----------------------------------------------------------------------------|--------------------------------------------------------------------------------|
--------------------------------------------|-------||------0-------------------------------------|-------||------------------6-------------------------|-------||------------------------------6-------------|-------||--------------------------------------------|--0----||--------------------------------------------|-------||
Tap to rate this tab
 
# A B C D E F G H I J K L M N O P Q R S T U V W X Y Z