Kotaro Oshio - Splash tab

Title: Splash
Artist: Kotaro Oshio
Album: Blue Sky
Tempo = 160
Steel Guitar

Legend
L - tied note
x - dead note
h - hammer on/pull off
b - bend
s - slide
~ - vibrato
g - ghost note
> - accentuated note
t - trill
M - palm mute
. - staccato
P - popping (bass)
S - slapping (bass)
+ - tapping
W - wide vibrato
< - fade in
w - whammy bar
= - tremolo picking
v - brush up
^ - brush down
V - pick stroke up
n - pick stroke down


D |--0-----0--------0-------------|A |--0-----0--------0-------------|G |--2--------4--x--------6L------|D |--4--------5-----------7L------|A |--------------------------0L---|D |--------------------------0L---|
-----0-----------0----------------------------------|-----0-----------0--x-------------------------------|--6--------4--x-----x-------------------------------|--7--------5--------x-------------------------------|--------------------------0-------------------------|--------------------------0L----------0--------0----|
--------0--------0-------------|--------0--------0-------------|--2--------4--x--------6L------|--4--------5-----------7L------|--------------------------0L---|--------------------------0L---|
-----0-----------0----------------------------------|----|----|-----0-----------0--x-------------------------------|----|----|--6--------4--x-----x-------------------------------|----|----|--7--------5--------x-------------------------------|----|----|--------------------------0-------------------------|----|----|--------------------------0L----------0--------0----|----|----|
--------0--------0-------------|--------0--------0-------------|--2--------4--x--------6L------|--4--------5-----------7L------|--------------------------0L---|--------------------------0L---|
-----0----------------------------------------------||-----0--------x--x--x-------------------------------||--6--------4----------------------------------------||--7--------5----------------------------------------||--------------------------0-------------------------||-----------------x--------0L----------0--------x----||
---------------------------------------------------|-7-----x--5--x--5--x--3----------------------------|o9--------7-----7-----5----------------------------|o--------------------------------------------------|---------------------------------------------------|-------------------------0--------0L-0--------3L---|
----------------------------------------------------|--x--3--x--2--x--0--x-------------------------------|-----5-----4-----2-----4----------------------------|-----------------------0----------------------------|----------------------------------------------------|--------------------------3--------3L-3--3-----5L---|
----------------------------------------------------|--x-----x-------------------------------------------|-----4h-5--4--x--0--x--2L---------------------------|-----0-----0-----0-----0L---------------------------|----------------------------------------------------|--------------------------5--------5L-5--5-----5L---|
-----------0-----0----------------------------------|--x-----x--0--x--0--x--7L---------------------------|--2h-0-----------------9L---------------------------|--0-----4-------------------------------------------|----------------------------------------------------|--------------------------5--------0L-0--------0L---|
----------------------------------------------------|--7--7--x--5--x--5--x--3----------------------------|--9--9-----7-----7-----5----------------------------|----------------------------------------------------|----------------------------------------------------|--------------------------0--------0L-0--------0L---|
----------------------------------------------------|--x--3--x--2--x--0--x-------------------------------|-----5-----4-----2-----4----------------------------|-----------------------0----------------------------|----------------------------------------------------|--------------------------0--------0L-0--0-----5L---|
----------------------------------------------------|----------------------------------------------------|--x--4--x--4--x-----x--2L---------------------------|-----0-----0-----0-----0L---------------------------|-----------------0----------------------------------|--------------------------5--------5L-5--5-----0----|
-----------0-----0----------------------------------|--x-----x--0--x--0--x-------------------------------|--2--0----------------------------------------------|--0-----4--------------3L---------------------------|-----------------------3----------------------------|-----------------------3--0--------0L-0-------------|
-----------------------12L--|--12-0--------------x--0----|--------x--------------12L--|--12-0h-3h-0--------x--0----|--------x--------------12L--|--12-0--------4h-0-----0----|--3--3-----------------12L--|--12------------------------|-----3-----------------12L--|--12------------------------|-----------3--3--0h-5--5L---|--5--------------------3L---|
--------x-------------------|--------x--5--x--3--x--0----|--------x-------------------|-----0--x--7--x--5--x--0----|----------------------------|-----0----------------------|-----3----------------------|-----0----------------------|-----3----------------------|----------------------------|--3--------3--3--0h-3h-5L---|--5--------5-----5-----3L---|
--------x--------------12L--|--12-0--------------x--0----|--------x--------------12L--|--12-0h-3h-0--------x--0----|-----------------------12L--|--12-0--------4h-0-----0----|-----3-----------------12L--|--12------------------------|-----3-----------------12L--|--12------------------------|--3--------3--3--0h-3h-5L---|--5--------------------3L---|
--------x-------------------|--------x-------------------|----------------------------|-----3----------------------|-----3----------------------|--3--------3--3--0h-3h-0h---|
--------------------------12-------19--------------||--------------x--x--x-----12-------19-x--x--x------||--------------------------12-------19-------------o||--------------------------12-------19-------------o||--------------------------12-------19--------------||--5h-0h-3h-5-----------x-----------------------x---||
-----------------0h-2h-4h---------|----------------------------------|----------------------------------|----------------------------------|----------------------------------|--5h-0h-3h-5----------------------|
--5h-4h-2h-0L-0-------------------------------------|-----------------0--x--0----------------------------|-----------------0-----0----------------------------|--------------------------0--------------------4L---|--------------------------0--------------------4L---|--------------------------0--------------------4L---|
-----------7L-7--7-----7L---------------------------|--x--0--x--0--x--0--x--0----------------------------|-----0----------------------------------------------|--------------------------4-------------------------|--------------------------4-------------------------|--------------------------4--------4L-4--4-----5L---|
--7--5h-4h-0L-0--0-----0----------------------------|--x--0--x--------0--x--0----------------------------|-----------------0-----0----------------------------|-----------------------------------------------7L---|-----------------------------------------------7L---|--------------------------5--5L-------5--------7L---|
-----0--------0L-0-----5L---------------------------|--x--0--x-----0L-0--x-------------------------------|-----0-----9--0L-0----------------------------------|--------------x-----------7-------------------------|--------------------------7-------------------------|--------------------------7--------------------0L---|
--5h-4h----0L-0-------------------------------------|--------7h-------0--0L-0----------------------------|--------------------0L-0----------------------------|-----------------------------------------------4L---|-----------------------------------------------4L---|--------------------------0-----------------0--4L---|
-----------7L-7--7-----7L---------------------------|--x--0--x--0--x--0--x--0----------------------------|-----0----------------------------------------------|--------------------------4-------------------------|--------------------------4-------------------------|--------------------------4--------4L-4--4-----5L---|
--7--5h-4h-0L-0--0----------------------------------|--x--------------0--x-------------------------------|-----------------0----------------------------------|----------------------------------------------------|----------------------------------------------------|--------------------------5--5L-------5-------------|
--0-----0--0L-0--0-------------|--------0-----0-----0-----0----|--10----9--0--x--0-------------|--------0-----0-----0-----0----|--0-----0--0-----9-------------|--------x-----x-----x-----11---|--9-----9--9-----9-------------|--------------------------0----|--------------------------0----|--0----------------------------|-------------------------------|--0--------0-----0-----0-------|
--------0-----0-----0--------------------------12L--|--------0-----0-----0--------------------12----0L---|--------x-----x-----x-----12-11----12---------------|--------------------------0--0-----0----------------|----------------------------------------------------|--0--0-----0-----0-----10---------------------------|
--------x-----x-----x-----12---|--------0-----0-----0-----0----|--------0-----0-----0----------|-------------------------------|-------------------------------|--10-10----10----10----10------|
--------------x-----x-----9--------9-----11----12L--|--------x-----0-----0-----0--12----0-----0-----0L---|--------0-----0-----0-------------------------------|--------0-------------------------------------------|----------------------------------------------------|--10-10----10----10----9L---------------------------|
--------------------------12---|--------x-----x-----x-----0----|-----11-------11----11---------|--------9-----9-----9----------|-------------------------------|--9--------9-----9-----9-------|
--------x-----x-----x-----14-12----11----7-----9L---|--------0-----0-----0-----0--0-----0-----0-----0L---|--------0-----0-----0-------------------------------|----------------------------------------------------|--0--0-----0-----0----------------------------------|----------------------------------------------------|
--------------------------------------------------9----|--------------------------x-----------x-----------0----|-------------------------------------------------------|--------5-----5-----------5-----5-----5----------------|--------5-----5-----------5-----5-----5----------------|--------5-----5-----------------------------0h-5-------|
----------------------------|--------0-----0-----0-----0----|--x-----x-----------x-------|--------0-----0-----0-----0----|----------------------------|--------x-----x-----x-----11s--|--5--0--5--4-----2--0-------|--------------------------0----|--5--0--5--4-----2--0-------|--0----------------------------|--5--0--5--4L-4--2--0-------|--0--------0-----0-----0-------|
--------0-----0-----0--------------------------12L--|--------0-----0-----0--------------------12----0L---|--------x-----x-----x-----12-11----12---------------|--------------------------0--0----------------------|----------------------------------------------------|--0--0-----0-----0-----10L--------------------------|
--------x-----x-----x-----12---|--------0-----0-----0-----0----|--------0-----0-----0----------|-------------------------------|-------------------------------|--10-10----10----10----10------|
--------x-----x-----x-----9--------9-----11----12L--|--------------0-----0-----0--12----0-----0-----0L---|--------0-----0-----0-------------------------------|--------0-------------------------------------------|----------------------------------------------------|--10-10----10----10----9L---------------------------|
--------x-----x-----x-----12-------------12---------|--------------------------0-------------------------|-----11-------11-------------------------11---------|--------9-----9-----9-------------------------------|----------------------------------------------------|--9--------9-----9-----9----------------------------|
--------x-----x-----x-----14-12----14----16----12---|--------------------------0--0-----0-----0-----12---|--------0-----0-----0--------------------------12---|--------0-----0-----0--------------------------12---|--0--0-----0-----0----------------------------------|----------------------------------------------------|
--------------------------12----0--------0----------|--------------------------------0-----x--0--x-------|--------------------------------0--------0----------|-----5-----------------5--------x-------------------|-----5-----------------5----------------------------|-----5-----------------5----------------------------|
--------------------------12-0-----0L-0--0----------|--------------------------12-0-----0L-0--0----------|--------------------------12-0-----0L-0--0----------|--5--0h-5--4L-4--2----------------------------------|--5--0h-5--4L-4--2----------------------------------|--5--0h-5--4L-4--2----------------------------------|
--0-----0--------0-------------|--0-----0--------0-------------|--0--------4L-4--------6L------|--0--------5-----------7-------|--------------------------0L---|--------------------------0L---|
-----0----------------------------------------------|--0--0--------x-------------------------------------|--6--------4L-4--0----------------------------------|-----------5-----0--0-------------------------------|--------------------0-----0-------------------------|--------------------------0-----------------0--0----|
--------0--------0-------------|-----0-----------12----12L--------|--------0-----x--0-------------|--x--0--------x--12----12L--------|--2--------4L-4--------6L------|--6--------4L-4--12----12L--------|--4--------5-----------7-------|-----------5-----12----12L--------|--------------------------0L---|-----------------12----12L0-------|--------------------------0L---|-----------------12----12L0-------|
--12----0--------0----------|-----0----------------------|--12----0-----x--0----------|--x--0--------x-------------|--12-------4L-4--------6L---|--6--------4-----0----------|--12-------5-----------7L---|--7--------5L-5--0--0-------|--12------------------------|--------------------0-------|--12------------------------|--------------------0--0----|
--------0--------0-------------|-----0----------------------------|--------0-----x--0-------------|--x--0--------x-----x-------------|--2--------4L-4--------6L------|--6--------4----------------------|--4--------5-----------7-------|-----------5----------------------|--------------------------0L---|--------------------------0-------|--------------------------0L---|-----------------x-----x--0-------|
-----------------0h-2h-4h---------|----------------------------------|----------------------------------|----------------------------------|----------------------------------|--5h-0h-3h-5----------------------|
--5h-4h-2h-0L-0-------------------------------------|-----------------0--x--0----------------------------|-----------------0-----0----------------------------|--------------------------0--------------------4L---|--------------------------0--------------------4L---|--------------------------0--------------------4L---|
--x--------7L-7--7-----7L---------------------------|--0--0--x--0--x--0--x--0L---------------------------|--0--0----------------------------------------------|--------------------------4-------------------------|--------------------------4-------------------------|--------------------------4--------4L-4--4-----5L---|
--7--5h-4h-0L-0-------------------------------------|--0--0--------x--x--x--x----------------------------|--x--------------x-----x----------------------------|----------------------------------------------------|----------------------------------------------------|--------------------------5--5--------5L-------5----|
--0--x--x--0--------0L------------------------------|--0--x--x--0--------0-------------------------------|--0--x--x--0--------10------------------------------|--7--------7--------8-----7--------7----------------|--7--------7--------8-----7--------7----------------|--7--------7--------------7--------7--------8L------|
--0-----------x-----x-------------------------------|--------x-----0-----0-------------------------------|--------------0-----0--9----------------------------|-----------------------8----------------------------|----------------------------------------------------|--------------------------8--------8L-8--8-----8L---|
-----------10----10-10------------------------------|--x--10-x--10-x--10-10------------------------------|--9--9--9-----9-----9-------------------------------|--8-----8-----8-----8-------------------------------|----------------------------------------------------|--------------------------8--8-----8L-8--8--8-------|
--10----x--10L10------------------------------------|--8-----8--0--x--0--x--0----------------------------|--9-----9--9-----9-----9----------------------------|--10------------------------------------------------|--------------------------0--------0L-0-------------|----------------------------------------------------|
--12s10----7-----0--0-------------------------------|--0--0--x--0--x--0--0-------------------------------|--x--x-----x-----0--0-------------------------------|--12s10----7-----0----------------------------------|--------------------------0--0-----0-----0--0-------|----------------------------------------------------|
--5-----x--5L-5-------------------------------------|--3-----3--0L-0--0--x-------------------------------|--4-----4--4L-4--4----------------------------------|--0--------0L-0-------------------------------------|--x-------------------------------------------------|--------------------------5--------5L-5--------0h---|
--x--------------5--x-------------------------------|--0--0--x--0--x--0--0-------------------------------|--4--4-----4L-4--4--4-------------------------------|--0--0-----0--------0-------------------------------|----------------------------------------------------|--------------------------5h-0h-5--5L-5--5----------|
--4-----4s-12L12-12----11------|-----9-----7-----4----------------------|--0-----0--0--x--0--x--0-------|--x--0--x--0--x--0--x-------------------|--2-----2s-11----11----9-------|-----7-----6-----2----------------------|--0-----x----------------------|----------------------------------------|--------------------------0L---|--------------------------0--------0----|--------------------------0L---|--------------------------0--------0----|
--4-----x-----4--5s-7--0L---------------------------|--0-----0-----0--0--x--0L---------------------------|--4-----4-------------------------------------------|--0-------------------------------------------------|----------------------------------------------------|--------------------------0--------5--5--------4L---|
--0-----x-----4--5h-7--0L---------------------------|--0--0--0-----0--0-----0L---------------------------|-----0--0-------------------------------------------|----------------------------------------------------|----------------------------------------------------|--------------------------4--------4--4--------3L---|
--0-----x-----3h-2h-0--12---------------------------|--0--0--0-----0--------12---------------------------|-----0--0--------------12---------------------------|-----------------------------------------------2----|-----------------------------------------------2----|--------------------------3--------3--3--------2L---|
--------x-----x-----x-------|-----------------7-----12---|--------0-----0-----0-------|-----------------7-----12---|--------0-----0-----0-------|-----------------7-----12---|----------------------------|--2--0h-2--4-----------12---|----------------------------|--2--0h-2--4-----------12---|--2--2-----2-----2-----2----|--2--0h-2--4-----------5----|
--------------------7-------||-0--------0-----0-----0-------|--------------------7-------||-0--------0-----0-----0-------|--------------------7-------||o11s------x-----x-----x-------|--------------------7-------||o0----------------------------|-----------0--------7-------||----0-------------------------|-----5h-7--0--------7-------||----0--------0-----0-----0----|
-----------------------12L------0-----0-----0-------|-----------------12----0L-------0-----0-----0-------|--12-11----12-------------------x-----x-----x-------|--0--0-----0----------------------------------------|----------------------------------------------------|--------------------------0--0-----0-----0-----10L--|
--12-------x-----x-----x-------|--0--------0-----0-----0-------|-----------0-----0-----0-------|-------------------------------|-------------------------------|-----10-10----10----10----10---|
--9--------9-----11----12L------------x-----x-------|--0--12----0-----0-----0L-------x-----0-----0-------|--------------------------------0-----0-----0-------|--------------------------------0-------------------|----------------------------------------------------|--------------------------10-10----10----10----9L---|
--12-------------12---------------------------------|--0-----------------------------x-----x-----x-------|-----------------11----------11-11----11----11------|--------------------------------0-----0-----0-------|----------------------------------------------------|--------------------------9--------9-----9-----9----|
--14-12----11----7-----9L-------x-----x-----x-------|--0--0-----0-----0-----0L-------0-----0-----0-------|--------------------------------0-----0-----0-------|----------------------------------------------------|--------------------------0--0-----0-----0----------|----------------------------------------------------|
--9-------------------------------------------------------------|--0-----x--x----------------------------------------------------|----------------------------------------------------------------|--------------------5-----5-----------5-----5-----5-------------|--------------------5-----5-----------5-----5-----5-------------|--------------------5-----5-----------------------------0h-5----|
----------------------------|--0--------0-----0-----0-------|--x-----x-----------x-------|--0--------0-----0-----0-------|----------------------------|--11-------x-----x-----x-------|--5--0--5--4-----2--0-------|--0----------------------------|--5--0--5--4-----2--0-------|-----0-------------------------|--5--0--5--4L-4--2--0-------|-----0--------0-----0-----0----|
-----------------------12L------0-----0-----0-------|-----------------12----0L-------0-----0-----0-------|--12-11----12-------------------x-----x-----x-------|--0--0-----0----------------------------------------|----------------------------------------------------|--------------------------0--0-----0-----0-----10L--|
--12-------x-----x-----x-------|--0--------0-----0-----0-------|-----------0-----0-----0-------|-------------------------------|-------------------------------|-----10-10----10----10----10---|
--9--------9-----11----12L------------x-----x-------|--0--12----0-----0-----0L-------x-----0-----0-------|--------------------------------0-----0-----0-------|--------------------------------0-------------------|----------------------------------------------------|--------------------------10-10----10----10----9L---|
--12----x--------12-------------------x-----x--x----|--0--------------0--------------x-----0-----0-------|-----------------11-------------x-----11----11------|----------------------------------------------------|----------------------------------------------------|--------------------------9--9-----9-----9-----9----|
--14-12----14----16----12---------------------------|--0--0-----0-----0-----12L------x-----x-------------|-----------------------12L------0-----0-----0-------|-----------------------12L------0-----0-----0-------|--------------------------0--0-----0-----0----------|----------------------------------------------------|
--x-----0--------0----------------------------------|--12----0-----x--0--x-------------------------------|--12----0-------------------------------------------|--12----x--------------------5----------------------|-----------------------------5----------------------|-----------------------------5----------------------|
--x-----x--x--x--x---------------------------------||--10----9--10----0---------------------------------||--0-----0--0-----6--------------------------------o||--9-----9--9-----7--------------------------------o||--------------------------0--------0L-0--0---------||---------------------------------------------------||
--x-----0--------0----------------------------------|--12----0-----x--0--x-------------------------------|--12----0-------------------------------------------|--12----x--------------------5-----------------5----|-----------------------------5-----------------5----|-----------------------------5-----------------5----|
--x-------------------------------------------------|--12-0-----0L-0--0----------------------------------|--12-0-----0L-0--0----------------------------------|--------------------------5--0h-5--4-----2-----0----|--------------------------5--0h-5--4-----2-----0----|--------------------------5--0h-5--4L-4--2-----0----|
--x-------------------------------------------------|--12-0-----0-----0----------------------------------|--12-0-----0-----0----------------------------------|--------------------------5--0h-5--4-----2-----0----|--------------------------5--0h-5--4-----2-----0----|--------------------------5--0h-5--4L-4--2-----0----|
----------------------------------------------------|--0--0-----0L-0--0----------------------------------|--0--0-----0-----0----------------------------------|--------------------------5--0h-5--4-----2----------|--------------------------5--0h-5--4-----2----------|--------------------------5--0h-5--4L-4--2----------|
--x-----0--------0-------------|--0-----0--------0-------------|--0--------4L-4--------6L------|--0--------5-----------7L------|--------------------------0L---|--------------------------0L---|
-----0----------------------------------------------|--x--0--------x-------------------------------------|--6--------4-----0----------------------------------|--7--------5-----0--0-------------------------------|--------------------0-----0-------------------------|--------------------------0-----------------0--0----|
--------0--------0-------------|-----0-----------12----12L--------|--------0-----x--0-------------|--x--0--------x--12----12L--------|--2--------4-----------6L------|--6--------4-----12----12L--------|--4--------5-----------7L------|--7--------5-----12----12L--------|--------------------------0L---|-----------------12----12L0-------|--------------------------0L---|-----------------12----12L0-------|
--12----0--------0----------|-----0----------------------|--12----0-----x--0----------|--x--0--------x-------------|--12-------4-----------6L---|--6--------4-----0----------|--12-------5-----------7L---|--7--------5L-5--0--0-------|--12------------------------|--------------------0-------|--12------------------------|--------------------0--0----|
--------0--------0-------------|--------------0L------------------|--0----||--------0-----x--0-------------|--------------0L------------------|--0----||--2--------4-----------9L------|--9--9-----11-11L-----------------|--11---||--4--------5-----------11L-----|--11-11----12-12L------------12---|--12---||--------------------------0L---|--------------0L----------0--0----|--0----||--------------------------0L---|--------------0L----------0--0----|--0----||
Tap to rate this tab
 
# A B C D E F G H I J K L M N O P Q R S T U V W X Y Z