Living In The Country tab with lyrics by Kottke Leo - Easy chords and tabs for guitar

Kottke Leo – Living In The Country tab

(attention)
mf
freely,  whatever
------------------------
------------------------
------------------------
------------------------
----0----0------------------0----0--------------
INTRO(one)ffbuild momentum--cleanly----2---------2-------------------------------------------------------3---------------3----------------------------------------------------------------------------------------------------------------0----------------0------------------------------------------------------------------------------------------------------0-------------0-------------------------------------------- m i p m p i p p
(two)----2---------2-------------------------------------------------------3---------------3----------------------------------------------------------------------------------------------------------------0------------------------------------------------------------------------------0---------------------------------------0-------------0--------------------------------------------
repeat (one) three times
(three)----2---------2-------------------------------------------------------3---------------3------------------------------------------------------------------2---------------------------------------------0-----------------------------------------------------------------------------------------------------------------------0-------------0--------------------------------------------
(four)----2---------2-------------------------------------------------------3---------------3-------------------------------------------------2----------------2---------------------------------------------------------------------------------------------------------------------------------------------------------------------0-------------0--------------------------------------------
repeat (four) four times
(five)----2---------2-------------------------------------------------------3---------------3-------------------------------------------------2---------------0----------------------------------------------------------------------------------------------------------------------------------------------------------------------0-------------0--------------------------------------------
THEMEff(six)----5----------10-----9--7-----|---5--------7-------5-----------------7--------------------0--|------7-----------------7---0------------X7-------------------|---------7----------------------------------------------------|--------------------------------------------------------------|-----------------------------------0--------------0-----------|---0-------------0-------------- m i p m p m p i m i p m p m p i p p
(seven)----5-----------3--------2---0--|-----0-----2------------------------------2-------------------|--3-------------------------------------------------------0--|---------------------------------------2-----------------------|--------0------------0-------------0----------------0----------|---------------------------------------------------------------|--0-------------0-------------- m p i m p i m p p
--------0------2----------------------------------------------------3-----------------3-------------------------------------------------------------------0------------------------------------------------0-----------------------------------------------------------------------------------------------------------------------0--------------0--------------------------------------------
repeat (six)
(eight)----5-------5--------2---0------|-----------0-h2-----------------------2-------2---------------|--3-------------3------------------------0-------------------|---------------------------------------------------------------|--------0--------------0-----------0----------------0-------4--|--------------------0------------------------------------------|--0---------------------------- ^still iffy ^editorial
(nine)-----------------7------------5-------------3-------2-----0--------------------------------0-------------2----------------------------------0-----------0---------------------------------0--------------------------0----------------2-----------------------------------------------------------0-------------0-------------------/5---------------------------------------------------------- ^a slide from 2 is suggested here
(ten)--------0------2----------------------------------------------------3--------------------------------------------------------------------------------------------------------------------------------------0---------------0-------------------------------------------------------------------------------------------------------0--------------0--------------------------------------------
(eleven)--------0------2----------------------------------------------------3-----------------3--------------------------------------------------------------------------------------------------------------------0---------------0-------------------------------------------------------------------------------------------------------0--------------0--------------------------------------------
repeat (nine)
(twelve)----2----p0---------------------------------------------2--------------------------------3--\b2--------2-------2--/3-----3------------3------------------------------------------------------------------------------------------0--------------------0----------------0--------------0-------------------------------------------------------------------0-------0-----------------------0-------------------0-----------0--------- ^accidental ^^^^^triplet
(alternative to twelve, well, this one's probably standard)----2----p0-----------------------------------------2--------------------------------3--\2--------2--------2-/3--------------3---------------------------------------------------------------------------------------0--------------------0-----------0---------------0---------------------------------------------------------------0-------0-----------------------0------------0--------------0---------
(thirteen)---------------3------2---0--|-------------2-----0------------------------0--------------------|----3------------------3-----------------------0--------------0--|-------2------------------2----------------------------0---------|----------------0------------------------------------------------|----------0------------0---------------5-------------------------|----0-------------------------------
---------------3------2---0--|-------------2-----0------------------------0--------------------|----3------------------3--\2-------------------0--------------0--|-------2-----------------------------------------------0---------|----------------0------------------------------------------------|----------0----------------------------5-------------------------|----0------------------0------------
-------------------------------------------2-------------------------2----------0-------------3-------3-------------3-------0-----------------------------------------------------------------------------------2-------------0---------------0-------------0------------------0-------------0--------------------------------------------------------------0-------------0--------------0------------------
-------------------------------------------2------------------------h2----------0-------------3-------3-------------3-------------------------------------------------------------------------2-----------------2-------------0---------------0-------------0------------------0-------------4--------------------------------------------------------------0-------------0--------------0------------------ ^critical, and fun too
repeat (thirteen) (fourteen) --------------2---------------------------------------------------
-------3--------------3-------\slide up to play theme again-----------------------------------------------------------------------------------0---------------0------------------------------------------------------------------------------------------------------------0--------------0-----------------------------------------------
THEME AGAIN, only this time a little baby thememf(fifteen)----5----------10-----9--7-----|---5--------7-------5-----------------7--------------------0--|------7-----------------7---0------------X7-------------------|---------7-------------------------0--------------0-----------|---0-------------0--------------------------------------------|--------------------------------------------------------------|-------------------------------- m i p m p m p i m i p m p m p i p p
repeat (seven) repeat (fifteen) repeat (eight) repeat (nine) getting louder ff repeat (ten) repeat (eleven) repeat (nine) getting louder ff+ and building repeat (twelve) repeat (thirteen) very loudly fff and dirty picking or strumming repeat (thirteen) very loudly fff and dirty picking or strumming resume clean picking at ff towards end of (thirteen)
--------------2-----------------------3----------------------------------------------------------------0---------------0--------------------------4-----------0--------------0------------ ^^^not clear about this, sounds good
repeat (nine) repeat (ten) repeat (eleven) repeat (nine)
----2--p0----------------------------------------------------------------------3---------------------------------------------------------------------------------------------------------------------------0---------------0-------------------------------------------------------------------------------------------------------0--------------0--------------------------------------------
repeat (ten) repeat (ten)
--------0------2----------------------------------------------------3------------------3---3\2---2/3-------------------------------------------------------------------------------------------------------0---------------------0--------------------------------------------------------0----------------------------------------0--------------0-----------------------0--------------------
Have Fun!
Please rate this tab:
x1.0