Same Old Story tab with lyrics by Krezip - Easy chords and tabs for guitar

Krezip – Same Old Story tab

Krezip – Same Old Story

Intro:

  C5          Bb5          G#5           

|------------------------|-----------------||------------------------|-----------------||------------------------|-----------------||------------------------|-6-----6-----6---| 2x|-10----10----8-----8----|-6-----6-----6---||-8--8--8--8--6--6--6--6-|-4-4-4-4-4-4-4-4-|
Verse: C5 Bb5 G#5
|------------------------|-----------------||------------------------|-----------------||------------------------|-----------------||------------------------|-6-----6-----6---| 4x|-10----10----8-----8----|-6-----6-----6---||-8--8--8--8--6--6--6--6-|-4-4-4-4-4-4-4-4-|
Pre-Chorus: Guitar 1: Bb5 C5
|----------------|-----------------||----------------|-----------------||----------------|-----------------||-8-----8-----8--|-10----10----10--||-8-----8-----8--|-10----10----10--||-6-6-6-6-6-6-6-6|-8-8-8-8-8-8-8-8-|
Bb5 G#5 G#5
|----------------|-----------------|-------------------||----------------|-----------------|-------------------||----------------|-----------------|-------------------||-8-----8-----8--|-6-----6-----6---|-6-----6-------6---||-8-----8-----8--|-6-----6-----6---|-6-----6-------6---||-6-6-6-6-6-6-6-6|-4-4-4-4-4-4-4-4-|-4-4-4-4-4-4-4-4-4-|
Guitar 2: Bb Cm Bb G#
|-6------------|-8------------|-6------------|-4------------||-6------------|-8------------|-6------------|-4------------||-7------------|-8------------|-7------------|-5------------||-8------------|-10-----------|-8------------|-6------------||-8------------|-10-----------|-8------------|-6------------||-6------------|-8------------|-6------------|-4------------|
Chorus: Guitar 1: Eb5 Bb5 G#5
|------------------------|-----------------||------------------------|-----------------||-8-----8----------------|-----------------||-8-----8-----8-----8----|-6-----6-----6---| 3x|-6--6--6--6--8-----8----|-6-----6-----6---||-------------6--6--6--6-|-4-4-4-4-4-4-4-4-|
C5 Bb5
|-----------------|-----------------||-----------------|-----------------||-----------------|-----------------||-10----10----10--|-8-----8-----8---||-10----10----10--|-8-----8-----8---||-8-8-8-8-8-8-8-8-|-6-6-6-6-6-6-6-6-|
G#5 G#5
|-----------------|-----------------||-----------------|-----------------||-----------------|-----------------||-6-----6-----6---|-6-----6-----6---||-6-----6-----6---|-6-----6-----6---||-4-4-4-4-4-4-4-4-|-4-4-4-4-4-4-4-4-|
Guitar 2:
|----6--------6----||------------------||------------------| |--8---8----8---8--| 18x|------------------||------------------|
Verse: Guitar 1: C5 Bb5 G#5
|------------------------|-----------------||------------------------|-----------------||------------------------|-----------------||------------------------|-6-----6-----6---| 4x|-10----10----8-----8----|-6-----6-----6---||-8--8--8--8--6--6--6--6-|-4-4-4-4-4-4-4-4-|
Guitar 2: Cm Bb G#
|---------------------|-----------------||---------------------|-----------------||---------------------|-------5---------||------10---------8---|-----6-----6---6-| 4x|---10----10----8---8-|---6---6-----6---||-8-----------6-------|-4---------------|
Pre-Chorus: Guitar 1: Bb5 C5
|----------------|-----------------||----------------|-----------------||----------------|-----------------||-8-----8-----8--|-10----10----10--||-8-----8-----8--|-10----10----10--||-6-6-6-6-6-6-6-6|-8-8-8-8-8-8-8-8-|
Bb5 G#5
|----------------|-----------------||----------------|-----------------||----------------|-----------------||-8-----8-----8--|-6-----6-----6---||-8-----8-----8--|-6-----6-----6---||-6-6-6-6-6-6-6-6|-4-4-4-4-4-4-4-4-|
Guitar 2: Bb Cm
|----------------|----------------------||----------------|----------------------||---------7------|------------9---------||-----8-----8---8|------10------10----10||---8---8-----8--|---10----10------10---||-6--------------|-8--------------------|
Bb G# G#
|----------------|----------------|-----------------||----------------|----------------|-----------------||---------7------|---------5------|---------5-------||-----8-----8---8|-----6-----6---6|-----6-----6---6-||---8---8-----8--|---6---6-----6--|---6---6-----6---||-6--------------|-4--------------|-4---------------|
Chorus: Guitar 1: Eb5 Bb5 G#5
|-------------------------|------------------------||-------------------------|------------------------||-8--8--8--8--------------|------------------------||-8--8--8--8--8--8--8--8--|-6--6--6--6--6--6--6--6-| 3x|-6--6--6--6--8--8--8--8--|-6--6--6--6--6--6--6--6-||-------------6--6--6--6--|-4--4--4--4--4--4--4--4-|
C5 Bb5
|-------------------------|------------------------||-------------------------|------------------------||-------------------------|------------------------||-10-10-10-10-10-10-10-10-|-8--8--8--8--8--8--8--8-||-10-10-10-10-10-10-10-10-|-8--8--8--8--8--8--8--8-||-8--8--8--8--8--8--8--8--|-6--6--6--6--6--6--6--6-|
G#5 G#5
|-------------------------|------------------------||-------------------------|------------------------||-------------------------|------------------------||-6--6--6--6--6--6--6--6--|-6--6--6--6--6--6--6--6-||-6--6--6--6--6--6--6--6--|-6--6--6--6--6--6--6--6-||-4--4--4--4--4--4--4--4--|-4--4--4--4--4--4--4--4-|
Guitar 2:
|-6-6-6-6-6-6-6-6-|-6-6-6-6--8b-||-----------------|-------------||-----------------|-------------| |-----------------|-------------| 2x|-----------------|-------------||-----------------|-------------|
|-6-6-6-6-6-6-6-6-|-6-6-6-6-6-6-6-6-||-----------------|-----------------||-----------------|-----------------| |-----------------|-----------------| |-----------------|-----------------||-----------------|-----------------|
|-8-8-8-8-8-8-8-8-|-6-6-6-6-6-6-6-6-||-----------------|-----------------||-----------------|-----------------| |-----------------|-----------------| 2x |-----------------|-----------------||-----------------|-----------------|
Bridge: Guitar 1: Cm Bb G#
|------------------------|------------------------||------------------------|------------------------||-8--8--8--8--7--7--7--5-|----5--5--5--5--5--5--5-||-10-10-10-10-8--8--8--6-|----6--6--6--6--6--6--6-| |-10-10-10-10-8--8--8--6-|----6--6--6--6--6--6--6-||-8--8--8--8--6--6--6--4-|----4--4--4--4--4--4--4-|
G# Bb > 2x
|------------------------|------------------------||------------------------|------------------------| |-5--5--5--5--5--5--5--5-|-7--7--7--7--7--7--7--7-| |-6--6--6--6--6--6--6--6-|-8--8--8--8--8--8--8--8-||-6--6--6--6--6--6--6--6-|-8--8--8--8--8--8--8--8-||-4--4--4--4--4--4--4--4-|-6--6--6--6--6--6--6--6-|
G# G#
|------------------------|------------------------||------------------------|------------------------||-7--7--7--7--7--7--7--7-|-7----------------------||-6--6--6--6--6--6--6--6-|-6----------------------||-6--6--6--6--6--6--6--6-|-6----------------------||-4--4--4--4--4--4--4--4-|-4----------------------|
Guitar 2:
|-8--8--8--8--6--6--6--8-|----8--8--8--8--8--8--8-||------------------------|------------------------||------------------------|------------------------||------------------------|------------------------||------------------------|------------------------||------------------------|------------------------|
> 2x|-6--6--6--6--6--6--6--6-|-8--8--8--8--8--8--8--8-||------------------------|------------------------||------------------------|------------------------||------------------------|------------------------||------------------------|------------------------||------------------------|------------------------|
|-6--6--6--6--6--6--6--6-|-6----------------------||------------------------|------------------------||------------------------|------------------------||------------------------|------------------------||------------------------|------------------------||------------------------|------------------------|
Interlude: Piano: Bb5 G#
|------------------------|------------------------||------------------------|------------------------||------------------------|------------------------||-8----------------------|-6----------------------||-8----------------------|-6----------------------||-6----------------------|-4----------------------|
Bb5 G#
|------------------------|-----------------|-----------------||------------------------|-----------------|-----------------||------------------------|-----------------|-----------------||-8----------------------|-6---------------|-----------------||-8----------------------|-6---------------|-----------------||-6----------------------|-4---------------|-----------------|
Guitar:
|------------------------|------------------------||------------------------|------------------------||------------------------|------------------------||------------------------|------------------------||------------------------|------------------------||------------------------|------------------------|
|------------------------|------------------------||------------------------|------------------------||------------------------|------------------------||------------------------|------------------------||------------------------|-6--6--6--6--6--6--6--6-||------------------------|-4--4--4--4--4--4--4--4-|
|------------------------||------------------------||------------------------||-6--6--6--6--6--6--6--6-||-6--6--6--6--6--6--6--6-||-4--4--4--4--4--4--4--4-|
Chorus: Guitar 1: Eb5 Bb5 G#5
|-------------------------|------------------------||-------------------------|------------------------||-8--8--8--8--------------|------------------------||-8--8--8--8--8--8--8--8--|-6--6--6--6--6--6--6--6-| 3x|-6--6--6--6--8--8--8--8--|-6--6--6--6--6--6--6--6-||-------------6--6--6--6--|-4--4--4--4--4--4--4--4-|
C5 Bb5
|-------------------------|------------------------||-------------------------|------------------------||-------------------------|------------------------||-10-10-10-10-10-10-10-10-|-8--8--8--8--8--8--8--8-||-10-10-10-10-10-10-10-10-|-8--8--8--8--8--8--8--8-||-8--8--8--8--8--8--8--8--|-6--6--6--6--6--6--6--6-|
Eb5 Bb5 G#5
|-------------------------|------------------------||-------------------------|------------------------||-8--8--8--8--------------|------------------------||-8--8--8--8--8--8--8--8--|-6--6--6--6--6--6--6--6-| 3x|-6--6--6--6--8--8--8--8--|-6--6--6--6--6--6--6--6-||-------------6--6--6--6--|-4--4--4--4--4--4--4--4-|
C5 Bb5
|-------------------------|------------------------||-------------------------|------------------------||-------------------------|------------------------||-10-10-10-10-10-10-10-10-|-8--8--8--8--8--8--8--8-||-10-10-10-10-10-10-10-10-|-8--8--8--8--8--8--8--8-||-8--8--8--8--8--8--8--8--|-6--6--6--6--6--6--6--6-|
G#5 G#5
|-------------------------|------------------------||-------------------------|------------------------||-------------------------|------------------------||-6--6--6--6--6--6--6--6--|-6--6--6--6--6--6--6--6-||-6--6--6--6--6--6--6--6--|-6--6--6--6--6--6--6--6-||-4--4--4--4--4--4--4--4--|-4--4--4--4--4--4--4--4-|
Guitar 2:
|-6-6-6-6-6-6-6-6-|-6-6-6-6--8b-||-----------------|-------------||-----------------|-------------| |-----------------|-------------| 2x|-----------------|-------------||-----------------|-------------|
|-6-6-6-6-6-6-6-6-|-6-6-6-6-6-6-6-6-||-----------------|-----------------||-----------------|-----------------| |-----------------|-----------------| |-----------------|-----------------||-----------------|-----------------|
|-8-8-8-8-8-8-8-8-|-6-6-6-6-6-6-6-6-||-----------------|-----------------||-----------------|-----------------| |-----------------|-----------------| |-----------------|-----------------||-----------------|-----------------|
|-6-6-6-6-6-6-6-6-|-6-6-6-6--8b-||-----------------|-------------||-----------------|-------------| |-----------------|-------------| 2x|-----------------|-------------||-----------------|-------------|
|-6-6-6-6-6-6-6-6-|-6-6-6-6-6-6-6-6-||-----------------|-----------------||-----------------|-----------------| |-----------------|-----------------| |-----------------|-----------------||-----------------|-----------------|
|-8-8-8-8-8-8-8-8-|-6-6-6-6-6-6-6-6-||-----------------|-----------------||-----------------|-----------------| |-----------------|-----------------| 2x |-----------------|-----------------||-----------------|-----------------|
Outro: Guitar 1: C5 Bb5 G#5
|------------------------|-----------------||------------------------|-----------------||------------------------|-----------------||------------------------|-----------------| 3x|-10----10----8-----8----|-6-----6-----6---||-8--8--8--8--6--6--6--6-|-4-4-4-4-4-4-4-4-|
C5 Bb5 G#5
|------------------------|-----------------||------------------------|-----------------||------------------------|-----------------||------------------------|-6---------------| |-10----10----8-----8----|-6---------------||-8--8--8--8--6--6--6--6-|-4---------------|
Guitar 2:
|----6--------6---|-----------------||--6---6----6---6-|-----------------||-----------------|-----------------| |-----------------|-----------------| 2x |-----------------|-----------------||-----------------|-----------------|
|----6--------6---|----6--------6---||--6---6----6---6-|--6---6----6---6-||-----------------|-----------------| |-----------------|-----------------| |-----------------|-----------------||-----------------|-----------------|
|----6--------6---|-----------------||--6---6----6---6-|-----------------||-----------------|-----------------| |-----------------|-----------------| |-----------------|-----------------||-----------------|-----------------|
Guitar 3:
|-----------------|---<6------------||-----------------|-----------------||-----------------|-----------------| |-----------------|-----------------| |-----------------|-----------------||-----------------|-----------------|
|-8-------10------|-11---10---8---6-||-----------------|-----------------||-----------------|-----------------| |-----------------|-----------------| |-----------------|-----------------||-----------------|-----------------|
|-----------------|---<6------------||-----------------|-----------------||-----------------|-----------------| |-----------------|-----------------| |-----------------|-----------------||-----------------|-----------------|
|-6-----8-----10--|-11--------------||-----------------|-----------------||-----------------|-----------------| |-----------------|-----------------| |-----------------|-----------------||-----------------|-----------------|
Lex Razoux
Please rate this tab:
x1.0