La Cuca - Cara De Pizza tab

Es una cara no!                  Es una cara no!
          Es una pizza no!                Es una pizza no!

-----------------------------------------------------------| -----------------------------------------------------------| -----------------------------------------------------------| -----------------------------------------------------------| ---6----6-------------------------------6------------6-----| ---4----4-------------------------------4------------4-----|
Es la seņorita cara de pizza
ritmo de ska -------------------------------------------------------------| ---9--9-9-9-9---------------9--9---9--9----------------------| ---8--8-8-8-8---------------8--8---8--8----------------------| ---6--6-6-6-6-----66--------6--6---6--6----------------------| ---------------------66--------------------------------------| ---------------44--------------------------44-55-66-77-------|
-------------------------------------------------------------| ---9--9-9-9-9---------------9--9---9--9----------------------| ---8--8-8-8-8---------------8--8---8--8----------------------| ---6--6-6-6-6-----66--------6--6---6--6----------------------| ---------------------66--------------------------------------| ---------------44--------------------------444555666777------| aqui empiesa a cantar
------------------------------------------------------------| ----11---11--11--11--11-11--11------------------------------| ----10---10--10--10--10-10--10------------------------------| ----8----8----8---8---8--8--8---11---10---------------------| --------------------------------9----8----------------------| ------------------------------------------------------------|
------------------------------------------------------------| ----11---11--11--11--11-11--11----14--13--------------------| ----10---10--10--10--10-10--10----13--12--------------------| ----8----8----8---8---8--8--8-----11--10--------------------| ------------------------------------------------------------| ------------------------------------------------------------|
------------------------------------------------------------| ----11---11--11--11--11-11--11------------------------------| ----10---10--10--10--10-10--10------------------------------| ----8----8----8---8---8--8--8---11---10---------------------| --------------------------------9----8----------------------| ------------------------------------------------------------|
------------------------------------------------------------| ----11---11--11--11--11-11--11----14--13--------------------| ----10---10--10--10--10-10--10----13--12--------------------| ----8----8----8---8---8--8--8-----11--10--------------------| ------------------------------------------------------------| ------------------------------------------------------------| Srita cara de pizza yo te amo cara de pizza
------------------------------------------------------------| ------------------------------------------------------------| -----------------4-3-------------------------4-3------------| -----6---------6----------------6----------6----------------| ------6-5-------------------------6-5-----------------------| ---4-------4-4----------------4--------4-4------------------|
ritmo de ska ------------------------------------------------------------| ---9--9-9-9-9---------------9--9---9--9---------------------| ---8--8-8-8-8---------------8--8---8--8---------------------| ---6--6-6-6-6-----66--------6--6---6--6---------------------| ---------------------66-------------------------------------| ---------------44--------------------------44-55-66-77------|
------------------------------------------------------------| ---9--9-9-9-9---------------9--9---9--9---------------------| ---8--8-8-8-8---------------8--8---8--8---------------------| ---6--6-6-6-6-----66--------6--6---6--6---------------------| ---------------------66-------------------------------------| ---------------44--------------------------444555666777-----|
aqui empiesa a cantar otraves
------------------------------------------------------------| ----11---11--11--11--11-11--11------------------------------| ----10---10--10--10--10-10--10------------------------------| ----8----8----8---8---8--8--8---11---10---------------------| --------------------------------9----8----------------------| ------------------------------------------------------------|
------------------------------------------------------------| ----11---11--11--11--11-11--11----14--13--------------------| ----10---10--10--10--10-10--10----13--12--------------------| ----8----8----8---8---8--8--8-----11--10--------------------| ------------------------------------------------------------| ------------------------------------------------------------|
x 8 -----------------------------------------------------------| ----11---11--11--11----------------------------------------| ----10---10--10--10----------------------------------------| ----8----8----8---8-----11--10-----------------------------| ------------------------9---8------------------------------| -----------------------------------------------------------|
Srita cara de pizza yo te amo cara de pizza
-----------------------------------------------------------| -----------------------------------------------------------| -----------------4-3-------------------------4-3-----------| -----6---------6----------------6----------6---------------| ------6-5-------------------------6-5----------------------| ---4-------4-4----------------4--------4-4-----------------|
despues sige la bateria y sige algo asi -------------------------------------------------------------| -------------------------------------------------------------| --------------------------------------8h---------------------| ----6-6------------6-6-5-5-----5-5---------------------------| --------6-6----6-6---------6-6-------------------------------| ------------4-4----------------------------------------------|
------------------------------------------------------------| ------------------------------------------------------------| ------------------------------------------------------------| ---6-6--------------6-6--5-5-----6-6----8h------------------| -------6-6------6-6----------6-6----------------------------| -----------4-4----------------------------------------------|
Srita cara de pizza yo te amo cara de pizza
------------------------------------------------------------| ------------------------------------------------------------| -----------------4-3-------------------------4-3------------| -----6---------6----------------6----------6----------------| ------6-5-------------------------6-5-----------------------| ---4-------4-4----------------4--------4-4------------------|
esto x 8 ------------------------------------------------------------| ------------------------------------------------------------| ------------------------------------------------------------| ------------------------------------------------------------| ------------------------------------------------------------| -----444-555-666-7------------------------------------------|
Srita cara de pizza yo te amo cara de pizza
------------------------------------------------------------| ------------------------------------------------------------| -----------------4-3-------------------------4-3------------| -----6---------6----------------6----------6----------------| ------6-5-------------------------6-5-----------------------| ---4-------4-4----------------4--------4-4------------------|
ritmo de ska -------------------------------------------------------------| ---9--9-9-9-9---------------9--9---9--9----------------------| ---8--8-8-8-8---------------8--8---8--8----------------------| ---6--6-6-6-6-----66--------6--6---6--6----------------------| ---------------------66--------------------------------------| ---------------44--------------------------44-55-66-77-------|
-------------------------------------------------------------| ---9--9-9-9-9---------------9--9---9--9----------------------| ---8--8-8-8-8---------------8--8---8--8----------------------| ---6--6-6-6-6-----66--------6--6---6--6----------------------| ---------------44----66----------------------444555666777----|
------------------------------------------------------------| ----11---11--11--11--11-11--11------------------------------| ----10---10--10--10--10-10--10------------------------------| ----8----8----8---8---8--8--8---11---10---------------------| --------------------------------9----8----------------------| ------------------------------------------------------------|
------------------------------------------------------------| ----11---11--11--11--11-11--11----14--13--------------------| ----10---10--10--10--10-10--10----13--12--------------------| ----8----8----8---8---8--8--8-----11--10--------------------| ------------------------------------------------------------| ------------------------------------------------------------|
------------------------------------------------------------| ----11---11--11--11--11-11--11------------------------------| ----10---10--10--10--10-10--10------------------------------| ----8----8----8---8---8--8--8---11---10---------------------| --------------------------------9----8----------------------| ------------------------------------------------------------|
------------------------------------------------------------| ----11---11--11--11--11-11--11----14--13--------------------| ----10---10--10--10--10-10--10----13--12--------------------| ----8----8----8---8---8--8--8-----11--10--------------------| ------------------------------------------------------------| ------------------------------------------------------------|
Srita cara de pizza yo te amo cara de pizza
------------------------------------------------------------| ------------------------------------------------------------| -----------------4-3-------------------------4-3------------| -----6---------6----------------6----------6----------------| ------6-5-------------------------6-5-----------------------| ---4-------4-4----------------4--------4-4------------------|
Srita cara de pizza yo te amo cara de pizza
------------------------------------------------------------| ------------------------------------------------------------| -----------------4-3-------------------------4-3------------| -----6---------6----------------6----------6----------------| ------6-5-------------------------6-5-----------------------| ---4-------4-4----------------4--------4-4------------------|
------------------------------------------------------------| ------------------------------------------------------------| ------------------------------------------------------------| ------------------------------------------------------------| -----7------6-----------------------------------------------| -----5------4-----------------------------------------------|
Es una cara? No! Es una Pizza? No! Es una cara? No! Es una Pizza? No! Es la Seorita cara de Pizza!!! Dicen que su madre durante el embarazo Se comi diez pizzas de un chingadazo Andan diciendo que es una mutante (A mi no me interesa yo quiero ser su amante) Seorita Cara de Pizza Yo te amo Cara de Pizza (Eres un amor) Tiene un corazn que es la envidia de cualquiera Yo la adorara hasta el da en que se muriera Ella es una belleza (ella si tiene cabeza) Ella si que me emociona (ella es buena persona) Ella si se ve sabrosa (yo quiero que sea mi esposa) Seorita Cara de Pizza Yo te amo Cara de Pizza Es como apreciar una obra de arte Picasso la tendra como nico estandarte Quiero estirarle sus cachetes de queso En su boquita de pimiento yo quiero darle un beso Yo la adorara de cualquier manera Con mariscos en la cara a la marinera! Seorita Cara de Pizza Yo te amo Cara de Pizza Seorita Cara de Pizza Yo te amo Cara de Pizza (Eres un amor) Ahora voy a verla y voy bien alimentado No vaya a pasar lo que pas aquel da pasado Llegu con mucha hambre y le chingu una rebanada (Espero me perdone y no me mande a la chingada) Seorita Cara de Pizza Yo te amo Cara de Pizza Seorita Cara de Pizza Yo te amo Cara de Pizza
Tap to rate this tab
 
# A B C D E F G H I J K L M N O P Q R S T U V W X Y Z