Lagwagon - Billionaire tab

-------------------------------------------------------------------------------
			     Billionaire - Lagwagon
-------------------------------------------------------------------------------
Tabbed by: Jimbo
Email:

Tuning: standard


Intro - clean guitar

|------------------------------------------------|||-8--8--8-8--8--8-10-10--9--12-12-12-------------|||-8--8--8-8--8--8-10-10-10--12-12-12-------------|||------------------------------------------------|||-----------6--6-6--8--8--8--10-10-10------------|||---8--8-8---------------------------------------||
play 3 times. on last time only play last chord once Intro part 2 - distortion
guitar 1|-------------------------------------------------------------|||-------------------------------------------------------------|||-3/5-555-55-5/8-888-88-8/10-101010-1010-10/12-121212-1212----|||-------------------------------------------------------------|||-1/3-333-33-3/6-666-66-6/8--8-8-8--8-8--8-/10-101010-1010----|||-------------------------------------------------------------||play twice through
guitar 2 plays this chord the whole time
|------------|||------------|||-5----------|||------------|||-3----------|||------------||
Intro part 3 - solo rhythm guitar strums these chords
|----------------||----------------||-5-8------------||-5-8-8-6--------||-3-6-8-6--------||-----6-4--------|
someone else has tabbed the solo accurately enough, so i won't tab it here. just mess around with the blues scale based around C verse 1 - both guitars * = play 6x
|---------------------------------|||--*-*---------9----*-------------|||-5-8-10101010-10-12----5---3-----|||-5-8-10101010-10-12----5-5-3-6---|||-3-6-8-8-8-8--8--10----3-2-1-6---|||-----------------------------4---|| \\play through twice//
chorus - both guitars
"you have to honour me..."|---4---4-----------|||-8-4-8-4-----------|||-8-5-8-5-5-8--*-*--|||-8-6-8-6-5-8-8-6---|||-6-6-6-6-3-6-8-6---|||---4---4-----6-4---||
* = acoustic cool riff - both guitars
|----------------------|||----------------------|||-3/5-555--------------|||-3/5-5555x55/6x66/8---|||-1/3-3335x55/6x66/8---|||--------3x33/4x44/6---||play 4x
verse 2 - both guitars + flanger
|--------------------------------|||--------------------------------|||-5-3-----5-3--------5---3-------|||-5-3-6-5-5-3-3-5----5-5-3-6-----|||-3-1-6-5-3-1-3-5----3-2-1-6-----|||-----4-3-----1-3----------4-----||\play through twice/
chorus 2 - both guitars
|--*4*-*4*-------------4---|||-8-4-8-4--------------4---|||-8-5-8-5--5-8---5-8---5---|||-8-6-8-6--5-8-8-5-8-8-6---|||-6-6-6-6--3-6-8-3-6-8-6---|||---4---4------6-----6-4---||
* = play as triplets outro
guitar 1|------------------------------------------------------------------------------------------------|||------------------------------------------------------------------------------------------------|||-3/5-555-55-5/8-888-88-8/10-101010-1010-10/12-121212-1212--3/5-555-55-5/8-888-5--8888-5--8888-5-|||------------------------------------------------------------------------------------------------|||-1/3-333-33-3/6-666-66-6/8--8-8-8--8-8--8-/10-101010-1010--1/3-333-33-3/6-666-3--6666-3--6666-3-|||------------------------------------------------------------------------------------------------||
guitar 2 plays this chord the whole way through, keeping rhythm with 1st guitar
|------------|||------------|||-5----------|||------------|||-3----------|||------------||
then play cool riff x4, then play final part: guitar 1
|----------------|||--*-*-*-*-------|||-5-7-8-4--5-----|||----------------|||-3-5-6-2--3-----|||----------------||
guitar 2
|----------------|||--*-*-----------|||-5-3--*-*-5-----|||-----6-5--------|||-3-1------3-----|||-----4-3--------||
* = play 6x | / slide up | \ slide down | h hammer-on | p pull-off | ~ vibrato | + harmonic | x Mute note ===============================================================================
Tap to rate this tab
 
# A B C D E F G H I J K L M N O P Q R S T U V W X Y Z