Laurence Jalbert - Encore Et Encore tab

   encore et encore tab by laurence jalbert


|---------2-------------0--------------3----||-----3-----3-------2-----2--------3-----3--||---2---2---------2---2----------0---0------||------------------------------0------------||---------------0---------------------------||-0-----------------------------------------|
|---------0-------------3--------------0----||-----2-----2-------3-----3-------2------2--||---2---2---------0---0---------2---2-------||---------------0---------------------------||-0---------------------------0-------------||-------------------------------------------|
|-------------0h2---------||-----3---3-------3---3---||---2---2---2-------2---2-||-0-----------------------| x 4|-------------------------||-------------------------|
|-------------------------------------0---0--||------------3p2------------3p2-------3---3--||--------4--------------4-----------4---4----||------4---4----------4---4-------5----------||-4-2--------------0-------------------------||--------------------------------------------|
|-----0---0-------------0---------3--3----||-----2---2---------0-----0-----3------3--||-------2---2-----0---0------------0------||---2-----------2-------------0-----------||-0---------------------------------------||-----------------------------------------|
|-------------0h2------||-----3---3-------3----||---2---2---2-------2--||-0--------------------||----------------------||----------------------|
|-------------------------------------0---0--||------------3p2------------3p2-------3---3--||--------4--------------4-----------4---4----||------4---4----------4---4-------5----------||-4-2--------------0-------------------------||--------------------------------------------|
|-----0---0-------------0---------3--3----||-----2---2---------0-----0-----3------3--||-------2---2-----0---0------------0------||---2-----------2-------------0-----------||-0---------------------------------------||-----------------------------------------
|-9\---7\-----5\---------3----------||-----------------------------------||---9\---7\-----6\----/4------------||-----------------------------------||-----------------------------------||-----------------------------------|
|---------2-------------0--------------3----||-----3-----3-------2-----2--------3-----3--||---2---2---------2---2----------0---0------||------------------------------0------------||---------------0---------------------------||-0-----------------------------------------|
|---------0-------------3--------------0----||-----2-----2-------3-----3-------2------2--||---2---2---------0---0---------2---2-------||---------------0---------------------------||-0---------------------------0-------------||-------------------------------------------|
|-------------0h2---------||-----3---3-------3---3---||---2---2---2-------2---2-||-0-----------------------| x2|-------------------------||-------------------------|
|-------------------------------------0---0--||------------3p2------------3p2-------3---3--||--------4--------------4-----------4---4----||------4---4----------4---4-------5----------||-4-2--------------0-------------------------||--------------------------------------------|
|-----0---0-------------0---------3--3----||-----2---2---------0-----0-----3------3--||-------2---2-----0---0------------0------||---2-----------2-------------0-----------||-0---------------------------------------||-----------------------------------------|
|-------------0h2------||-----3---3-------3----||---2---2---2-------2--||-0--------------------||----------------------||----------------------|
|-------------------------------------0---0--||------------3p2------------3p2-------3---3--||--------4--------------4-----------4---4----||------4---4----------4---4-------5----------||-4-2--------------0-------------------------||--------------------------------------------|
|-----0---0-------------0---------3--3----||-----2---2---------0-----0-----3------3--||-------2---2-----0---0------------0------||---2-----------2-------------0-----------||-0---------------------------------------||-----------------------------------------
|-9\---7\-----5\---------3----------||-----------------------------------||---9\---7\-----6\----/4------------||-----------------------------------||-----------------------------------||-----------------------------------|
steve,,, pompom020366@hotmail.com,, pompom@sympatico.ca
Tap to rate this tab
 
# A B C D E F G H I J K L M N O P Q R S T U V W X Y Z