Led Zeppelin - The Rain Song tab

THE RAIN SONG

6 5 4 3 2 1 
D G C G C D 

Recorded version:
Acoustic guitar, doubled by clean electric guitar

|--0-----0-0-0-0-0-0-----0-0-0-0-0-0------------0---------------||---7----7-7-7-7-7--6----6-6-6-6-6-6---5-5-3-2--3--3-3-3-----2--||----0---0-0-0-0-0---0---0-0-0-0-0-0---4-4-4-4--3--3-3-3-----2--||-----7--7-7-7-7-7----6--6-6-6-6-6-6---5-5-5-5--3--3-3-3-----2--||------0-0-0-0-0-0-----0-0-0-0-0-0-0-0-------------0-0-0-0-0-0--||---------------------------------------------------------------|
|---------------------------------------------------------------||--2-2--2-2-2--11--9--12--11--4--9-9--9-9-9--11--9--12--11--4---||--4-4--4-4-4---0--0---0---0--0--0-0--0-0-0---0--0---0---0--0---||--2-2--2-2-2--11--9--12--11--4--9-9--9-9-9--11--9--12--11--4---||--0-0--0-0-0---0--0---0---0--0--8-8--8-8-8---0--0---0---0--0---||---------------------------------------------------------------|
|-----------------------------------------------------5--5--5---||--9-9--9---10\-9---9---9--9--9---9---9--9---9--9--9\-0--0--0---||--0-0--0---11\10--10--10-10-10--10--10-10--10-10-10\-0--0--0---||--9-9--9---12\11--11--11-11-11--10--10-10--10-10-10\-5--4--0---||--8-8--8----0--0---0---0--0--0---0---0--0---0--0--0--0--0--0---||---------------------------------------------------------------|
|--5-5--5--5----------------------------------------------------||--0-0--0--0--0-0-0--10\-9---9---9--9--9---9---9--9---9--9--9\--||--0-0--0--0--0-0-0--11\10--10--10-10-10--10--10-10--10-10-10\--||--0-0--5--4--0-4-5--12\11--11--11-11-11--10--10-10--10-10-10\--||--0-0--0--0--0-0-0---0--0---0---0--0--0---0---0--0---0--0--0---||---------------------------------------------------------------|
|--5--5--5--5-5--5--5-------------------------------------------||--0--0--0--0-0--0--0--0-0-0--10\-9---9--9---9--9--9---9---9----||--0--0--0--0-0--0--0--0-0-0--11\10--10-10--10-10-10--10--10----||--5--4--0--0-0--5--4--0-4-5--12\11--11-11--11-11-11--10--10----||--0--0--0--0-0--0--0--0-0-0---0--0---0--0---0--0--0---0---0----||---------------------------------------------------------------|
|with Fill 1 |----------------5--5--5--5-5--5--5-----------------------------||---9---9--9--9\-0--0--0--0-0--0--0--0-0-0-0--2--2-2--2-2-2--2--||--10--10-10-10\-0--0--0--0-0--0--0--0-0-0-0--2--4-4--4-4-4--2--||--10--10-10-10\-5--4--0--0-0--5--4--0-4-5-7--2--2-2--2-2-2--3--||---0---0--0--0--0--0--0--0-0--0--0--0-0-0-0--0--0-0--0-0-0--0--||---------------------------------------------------------------|
end||with Fill 2|---------------------------------------------5--5-5-5-5--4--2--||--2-2--2-2-2--2--2-2--2-2-2--2--2--2--2-2-2--4--4-4-4-4--2--2--||--4-4--4-4-4--2--4-4--4-4-4--2--2--2--2-4-2--4--4-4-4-4--2--2--||--3-3--3-3-3--4--4-4--4-4-4--5--5--5--5-5-5--4--4-4-4-4--2--2--||--0-0--0-0-0--0--0-0--0-0-0--0---------------0--0-0-0-0--0-----||---------------------------------------------------------------|
end||--4--4-4-4--0---2--0h2p0------0---2--0h2p0---------------------||--2--2-2-2--0------------0----0------------0----2--2-2--2-2-2--||--2--2-2-2--0--------------0--0--------------0--2--4-4--4-4-4--||--2--2-2-2--0-----------------0-----------------2--2-2--2-2-2--||-----0-0-0--2-----------------2-----------------0--0-0--0-0-0--||---------------------------------------------------------------|
|--0-----0-0-0-0-0-0-----0-0-0-0-0-0------------0---------------||---7----7-7-7-7-7--6----6-6-6-6-6-6---5-5-3-2--3--3-3-3-----2--||----0---0-0-0-0-0---0---0-0-0-0-0-0---4-4-4-4--3--3-3-3-----2--||-----7--7-7-7-7-7----6--6-6-6-6-6-6---5-5-5-5--3--3-3-3-----2--||------0-0-0-0-0-0-----0-0-0-0-0-0-0-0-------------0-0-0-0-0-0--||---------------------------------------------------------------|
|---------------------------------------------------------------||--2-2--2-2-2--11--9--12--11--4--9-9--9-9-9--11--9--12--11--4---||--4-4--4-4-4---0--0---0---0--0--0-0--0-0-0---0--0---0---0--0---||--2-2--2-2-2--11--9--12--11--4--9-9--9-9-9--11--9--12--11--4---||--0-0--0-0-0---0--0---0---0--0--8-8--8-8-8---0--0---0---0--0---||---------------------------------------------------------------|
|with Fill 3||-----------------------------------------------------5--5--5---||--9-9--9---10\-9---9---9--9--9---9---9--9---9--9--9\-0--0--0---||--0-0--0---11\10--10--10-10-10--10--10-10--10-10-10\-0--0--0---||--9-9--9---12\11--11--11-11-11--10--10-10--10-10-10\-5--4--0---||--8-8--8----0--0---0---0--0--0---0---0--0---0--0--0--0--0--0---||---------------------------------------------------------------|
|with Fill 4| |with Fill 3| |--5-5--5--5----------------------------------------------------||--0-0--0--0--0-0-0--10\-9---9---9--9--9---9---9--9---9--9--9\--||--0-0--0--0--0-0-0--11\10--10--10-10-10--10--10-10--10-10-10\--||--0-0--5--4--0-4-5--12\11--11--11-11-11--10--10-10--10-10-10\--||--0-0--0--0--0-0-0---0--0---0---0--0--0---0---0--0---0--0--0---||---------------------------------------------------------------|
|with Fill 4||--5--5--5--5-5--5--5-------------------------------------------||--0--0--0--0-0--0--0--0-0-0--10\-9---9--9---9--9--9---9---9----||--0--0--0--0-0--0--0--0-0-0--11\10--10-10--10-10-10--10--10----||--5--4--0--0-0--5--4--0-4-5--12\11--11-11--11-11-11--10--10----||--0--0--0--0-0--0--0--0-0-0---0--0---0--0---0--0--0---0---0----||---------------------------------------------------------------|
|with Fill 3| |with Fill 5 |----------------5--5--5--5-5--5--5-----------------------------||---9---9--9--9\-0--0--0--0-0--0--0--0-0-0-0--2--2-2--2-2-2--2--||--10--10-10-10\-0--0--0--0-0--0--0--0-0-0-0--2--4-4--4-4-4--2--||--10--10-10-10\-5--4--0--0-0--5--4--0-4-5-7--2--2-2--2-2-2--3--||---0---0--0--0--0--0--0--0-0--0--0--0-0-0-0--0--0-0--0-0-0--0--||---------------------------------------------------------------|
|---------------------------------------------5--5-5-5-5--4--2--||--2-2--2-2-2--2--2-2--2-2-2--2--2--2--2-2-2--4--4-4-4-4--2--2--||--4-4--4-4-4--2--4-4--4-4-4--2--2--2--2-4-2--4--4-4-4-4--2--2--||--3-3--3-3-3--4--4-4--4-4-4--5--5--5--5-5-5--4--4-4-4-4--2--2--||--0-0--0-0-0--0--0-0--0-0-0--0---------------0--0-0-0-0--0-----||---------------------------------------------------------------|
|--4--4-4-4-4--5--5-5-5-5--7--5-7--7-7-7-7--5--5-5-5-5--4--2----||--2--2-2-2-2--4--4-4-4-4--5--5-5--5-5-5-5--4--4-4-4-4--2--2----||--2--2-2-2-2--4--4-4-4-4--5--5-5--5-5-5-5--4--4-4-4-4--2--2----||--2--2-2-2-2--4--4-4-4-4--5--5-5--5-5-5-5--4--4-4-4-4--2--2----||-----0-0-0-0--0--0-0-0-0--0--0-0--0-0-0-0--0--0-0-0-0--0-------||---------------------------------------------------------------|
end||--4--4-4-4--0---2--0h2p0------0---2--0h2p0---------------------||--2--2-2-2--0------------0----0------------0----2--2-2--2-2-2--||--2--2-2-2--0--------------0--0--------------0--2--4-4--4-4-4--||--2--2-2-2--0-----------------0-----------------2--2-2--2-2-2--||-----0-0-0--2-----------------2-----------------0--0-0--0-0-0--||---------------------------------------------------------------|
|--0-----0-0-0-0-0-0-----0-0-0-0-0-0------------0---------------||---7----7-7-7-7-7--6----6-6-6-6-6-6---5-5-3-2--3--3-3-3-----2--||----0---0-0-0-0-0---0---0-0-0-0-0-0---4-4-4-4--3--3-3-3-----2--||-----7--7-7-7-7-7----6--6-6-6-6-6-6---5-5-5-5--3--3-3-3-----2--||------0-0-0-0-0-0-----0-0-0-0-0-0-0-0-------------0-0-0-0-0-0--||---------------------------------------------------------------|
|---------------------------------------------------------------||--2-2--2-2-2--11--9--12--11--4--9-9--9-9-9--11--9--12--11--4---||--4-4--4-4-4---0--0---0---0--0--0-0--0-0-0---0--0---0---0--0---||--2-2--2-2-2--11--9--12--11--4--9-9--9-9-9--11--9--12--11--4---||--0-0--0-0-0---0--0---0---0--0--8-8--8-8-8---0--0---0---0--0---||---------------------------------------------------------------|
|-----------------------------------------------------5--5--5---||--9-9--9---10\-9---9---9--9--9---9---9--9---9--9--9\-0--0--0---||--0-0--0---11\10--10--10-10-10--10--10-10--10-10-10\-0--0--0---||--9-9--9---12\11--11--11-11-11--10--10-10--10-10-10\-5--4--0---||--8-8--8----0--0---0---0--0--0---0---0--0---0--0--0--0--0--0---||---------------------------------------------------------------|
|--5-5--5--5----------------------------------------------------||--0-0--0--0--0-0-0--10\-9---9---9--9--9---9---9--9---9--9--9\--||--0-0--0--0--0-0-0--11\10--10--10-10-10--10--10-10--10-10-10\--||--0-0--5--4--0-4-5--12\11--11--11-11-11--10--10-10--10-10-10\--||--0-0--0--0--0-0-0---0--0---0---0--0--0---0---0--0---0--0--0---||---------------------------------------------------------------|
|--5--5--5--5-5--5--5-------------------------------------------||--0--0--0--0-0--0--0--0-0-0--10\-9---9--9---9--9--9---9---9----||--0--0--0--0-0--0--0--0-0-0--11\10--10-10--10-10-10--10--10----||--5--4--0--0-0--5--4--0-4-5--12\11--11-11--11-11-11--10--10----||--0--0--0--0-0--0--0--0-0-0---0--0---0--0---0--0--0---0---0----||---------------------------------------------------------------|
|----------------5--5--5--5-5--5--5-----------------------------||---9---9--9--9\-0--0--0--0-0--0--0--0-0-0--10\-9---9--9---9----||--10--10-10-10\-0--0--0--0-0--0--0--0-0-0--11\10--10-10--10----||--10--10-10-10\-5--4--0--0-0--5--4--0-4-5--12\11--11-11--11----||---0---0--0--0--0--0--0--0-0--0--0--0-0-0---0--0---0--0---0----||---------------------------------------------------------------|
|with|------------------------------5--5--5--5-5--5--5---------------||---9--9---9---9--9---9--9--9\-0--0--0--0-0--0--0--0-0-0-0--2---||--10-10--10--10-10--10-10-10\-0--0--0--0-0--0--0--0-0-0-0--2---||--11-11--10--10-10--10-10-10\-5--4--0--0-0--5--4--0-4-5-7--2---||---0--0---0---0--0---0--0--0--0--0--0--0-0--0--0--0-0-0-0--0---||---------------------------------------------------------------|
Fill 1 end||with|------------------------------------------------------------5--||--2-2--2-2-2--2--2-2--2-2-2--2--2-2--2-2-2--2--2--2--2-2-2--4--||--4-4--4-4-4--2--4-4--4-4-4--2--4-4--4-4-4--2--2--2--2-4-2--4--||--2-2--2-2-2--3--3-3--3-3-3--4--4-4--4-4-4--5--5--5--5-5-5--4--||--0-0--0-0-0--0--0-0--0-0-0--0--0-0--0-0-0--0---------------0--||---------------------------------------------------------------|
Fill 2 end||--5-5-5-5--4--2--4--4-4-4--0---2--0h2p0------0---2--0h2p0------||--4-4-4-4--2--2--2--2-2-2--0------------0----0------------0----||--4-4-4-4--2--2--2--2-2-2--0--------------0--0--------------0--||--4-4-4-4--2--2--2--2-2-2--0-----------------0-----------------| |--0-0-0-0--0--------0-0-0--2-----------------2-----------------||---------------------------------------------------------------|
Electric guitar - distorted |with Fill 6|---------------------------------------------------------------||---------------------------------------------------------------||-------------------------------5--5--5-5-----------------------||--7--7--7-7-2-2-5--5---5---7---7--7--7-7--------7-------7------||--7--7--7-7-2-4-5----5-5---7---5--5--5-5--------7--------------||--5--5--5-5-----3------3---5-------------5-7b9--5---8-9---8-9--|
|---------------------------------------------------------------||---------------------------------------------------------------| |--------------------------------------------------5--5--5-5----||--------7------------7--7--7-7-2-2-5--5---5---7---7--7--7-7----||--7-----------7------7--7--7-7-2-4-5----5-5---7---5--5--5-5----||----8-9---8-9---7b9--5--5--5-5-----3------3---5-------------5--|
|---------------------------------------------------------------||---------------------------------------------------------------||---------------------------------------------------------------||-------7-------7-----------7------------7--7--7-7-2-2-5--5-----||-------7-------------7-----------7------7--7--7-7-2-4-5----5---||--7b9--5---8-9---8-9---8-9---8-9---7b9--5--5--5-5-----3--------|
|---------------------------------------------------------------||---------------------------------------------------------------||----------5--5--5-5--------------------------------------------||--5---7---7--7--7-7--------7-------7-----------7------------7--||--5---7---5--5--5-5--------7-------------7-----------7------7--||--3---5-------------5-7b9--5---8-9---8-9---8-9---8-9---7b9--5--|
let ring end||---------------------------------------------------------------||---------------------------------------------------------------||----------------------------5--5--5-5--------------------------||--7--7-7-2-2-5--5---5---7---7--7--7-7--------7~~~~~~~~---------||--7--7-7-2-4-5----5-5---7---5--5--5-5--------7~~~~~~~~---------||--5--5-5-----3------3---5-------------5-7b9--5~~~~~~~~---------|
|--------------------------------------------5--5--5--5-5--5----||--10\-9---9---9--9--9---9---9--9---9--9--9\-0--0--0--0-0--0----||--11\10--10--10-10-10--10--10-10--10-10-10\-0--0--0--0-0--0----||--12\11--11--11-11-11--10--10-10--10-10-10\-5--4--0--0-0--5----||---0--0---0---0--0--0---0---0--0---0--0--0--0--0--0--0-0--0----||---------------------------------------------------------------|
|--5---------------------------------------------------5--5--5--||--0--0-0-0--10\-9---9---9--9--9---9---9--9---9--9--9\-0--0--0--||--0--0-0-0--11\10--10--10-10-10--10--10-10--10-10-10\-0--0--0--||--4--0-4-5--12\11--11--11-11-11--10--10-10--10-10-10\-5--4--0--||--0--0-0-0---0--0---0---0--0--0---0---0--0---0--0--0--0--0--0--||---------------------------------------------------------------|
|--5-5--5--5----------------------------------------------------||--0-0--0--0--0-0-0--10\-9---9---9--9--9---9---9--9---9--9--9\--||--0-0--0--0--0-0-0--11\10--10--10-10-10--10--10-10--10-10-10\--||--0-0--5--4--0-4-5--12\11--11--11-11-11--10--10-10--10-10-10\--||--0-0--0--0--0-0-0---0--0---0---0--0--0---0---0--0---0--0--0---||---------------------------------------------------------------|
|--5--5--5--5-5--5--5-------------------------------------------||--0--0--0--0-0--0--0--0-0-0--10\-9---9--9---9--9--9---9---9----||--0--0--0--0-0--0--0--0-0-0--11\10--10-10--10-10-10--10--10----||--5--4--0--0-0--5--4--0-4-5--12\11--11-11--11-11-11--10--10----||--0--0--0--0-0--0--0--0-0-0---0--0---0--0---0--0--0---0---0----||---------------------------------------------------------------|
|with Fill 1|----------------5--5--5--5-5--5--5-----------------------------||---9---9--9--9\-0--0--0--0-0--0--0--0-0-0-0--2--2-2--2-2-2--2--||--10--10-10-10\-0--0--0--0-0--0--0--0-0-0-0--2--4-4--4-4-4--2--||--10--10-10-10\-5--4--0--0-0--5--4--0-4-5-7--2--2-2--2-2-2--3--||---0---0--0--0--0--0--0--0-0--0--0--5-0-0-0--0--0-0--0-0-0--0--||---------------------------------------------------------------|
end||with Fill 7|---------------------------------------------5--5-5-5-5--4--2--||--2-2--2-2-2--2--2-2--2-2-2--2--2--2--2-2-2--4--4-4-4-4--2--2--||--4-4--4-4-4--2--4-4--4-4-4--2--2--2--2-4-2--4--4-4-4-4--2--2--||--3-3--3-3-3--4--4-4--4-4-4--5--5--5--5-5-5--4--4-4-4-4--2--2--||--0-0--0-0-0--0--0-0--0-0-0--0---------------0--0-0-0-0--0-----||---------------------------------------------------------------|
end||--4--4-4-4--0---2--0h2p0------0---2--0h2p0------/9--9--9-7-----||--2--2-2-2--0------------0----0------------0----/7--7--7---7---||--2--2-2-2--0--------------0--0--------------0--/7--7--7-------||--2--2-2-2--0-----------------0-----------------/7--7--7-------||-----0-0-0--2-----------------2--------------------------------||---------------------------------------------------------------|
|with Fill 8| |with Fill 9||--7--5------7--5--5--5-4---4--4-2-4--5--7--7-5-7--8--10-10-8---||--5-------7----4--4--4---4-2--2-2-2--4--5--5-5-5--7---8--8-8---||--5-----7------4--4--4-----2--2-2-2--4--5--5-5-5--7---8--8-8---||--5------------4--4--4-----2--2-2-2--4--5--5-5-5--7---8--8-8---||---------------------------------------------------------------||---------------------------------------------------------------|
|--10-/12\\---------0----------------0--------7p5---5--2p0---0--||---8-------------5---5---5--------5---5---5----6---------0-----||---8-----------6-------6--------6-------6--------7--------0----||---8---------7----------------7--------------0--------0--------||-----------0----------------0----------------------------------||---------------------------------------------------------------|
|--5p3-----3------------0-------0--------0-------0--0--||----4---4---4--------5-------4--------2---2---2----2--||------5-------5----0-------0--------0-------0------2--||--0--------------0---------------------------------2--||-------------------------4--------2----------------0--||---------------------------------------------------0--|
Fills: Fill 1: Clean electric guitar:
|---------------------------------------------------------------||---------------------------------------------------------------||--2--4-4--2-4-0-2---0----2--4-4--2-4-0-2---0----2--4-4--2-4-0--||--2--2-2----------4---2--3--3-3----------4---2--4--4-4---------||---------------------------------------------------------------||---------------------------------------------------------------|
|------------------------------||-----------------4--2---------||--2---0----2--4--------4------||----4---2--5--5----------5----||---------------------------5--||------------------------------|
Fill 2: Clean electric guitar:
|--------5--------2----4---4------||----------4---------2---2---2----||------4-----4--------------------||----4---------4--2---------------||--5---------------------------4--||---------------------------------|
Fill 3: Clean electric guitar:
|-------------------||--------9-12-9\\\--||-----10------------||-(10)--------------||-------------------||-------------------|
Fill 4: Clean electric guitar:
|-------------------||--------9-12-9\\\--||-----10------------||--11---------------||-------------------||-------------------|
Fill 5: Clean electric guitar:
|--------5-----4h5p4-----2----4---4-----------4h5p4------------||------4---4---------4------2---2---2---------------4---5---5--||----4-------4---------4--------------------4---------4---7----||--4---------------------2--------------4----------------------||-------------------------------------4------------------------||--------------------------------------------------------------|
|--7--5--------------4-5-----2-----4---4------||-------5-4----4---4-----4------2----2---2----||------------4---4---------4------------------||----------------------------2----------------||------------------------------------------4--||---------------------------------------------|
Fill 6: Acoustic guitar: The acoustic plays the full chords of the electric's solo; the progression of G(no3rd) - F(no3rd) - C(no3rd) - G(no3rd) until the end of the fill:
G(no3rd) F(no3rd) C(no3rd)|---0----|---3----|---5----||---7----|---5----|---0----||---0----|---5----|---0----||---7----|---5----|---0----||---0----|---0----|---5----||--------|--------|--------|
Fill 7: Clean electric guitar:
|------5p4-5p4-4--4--2-4--2----||----4-4---4---4--2---------2--||--4---4---4---4--2------------||------4---4---4--2------------||------------------------------||------------------------------|
Fill 8: Clean electric guitar:
|------5-------5-4---||----4---4---4-----4-| |--4-------4---------||--------------------||--------------------||--------------------|
Fill 9: Clean electric guitar:
|------7--------||----5---5---5--||--5-------5----||---------------||---------------||---------------|
Tap to rate this tab
 
# A B C D E F G H I J K L M N O P Q R S T U V W X Y Z