Led Zeppelin - In My Time Of Dying tab

E A E A C# E (open E) tuning

Intro (A) 4/4 Gtr I |----------|---------------|---------------------||----------|---------------|-------3s12-(12)-----||--------3s|=2-0-2s3s5---0-|-3s2-0-3s12-(12)---3s||----------|-----2s3s5---0-|-3s2-0-3s12-(12)---3s||----------|---------------|---------------------||----------|---------------|---------------------|
|---------------|-----------------||---------------|-----------------||-2-0-2s3s5---0-|-3---0-(0)---3s==||-2-0-2s3s5---0-|-3---0-(0)---3s==||---------------|-----------------||---------------|-----------------|
|---------------|---------------------|---------------|--------------|--------||---------------|-------3s12-(12)-----|---------------|--------------|--------||-2-0-2s3s5---0-|-3s2-0-3s12-(12)---3s|=2-0-2s3s5---0-|-3s==0-(0)----|-(0)----||-2-0-2s3s5---0-|-3s2-0-3s12-(12)---3s|=2-0-2s3s5---0-|-3s==0-(0)----|-(0)----||---------------|---------------------|---------------|--------------|--------||---------------|---------------------|---------------|--------------|--------|
A5C5 D5 (A) A5C5 D5 (A)|----------------|---------------------|----------------|---------------------||----------------|---------------------|----------------|---------------------||-0-3--5-(5)---0-|-3s7-0-3s5-3-(3)--0--|-0-3--5-(5)---0-|-3s7-0-3s5-3-(3)---0-||-0-3--5-(5)-----|---------------------|-0-3--5-(5)-----|---------------------||-0-3--5-(5)-----|---------------------|-0-3--5-(5)-----|---------------------||----------------|---------------------|----------------|---------------------|
A5C5 D5 (A)|----------------|----------------------||----------------|----------------------||-0-3--5-(5)---0-|-3s7-0-3s5-3-(3)--0-0s||-0-3--5-(5)-----|--------------------0s||-0-3--5-(5)-----|----------------------||----------------|----------------------|
|-----------------------|--------------------------||-----------------------|--------------------------||-7-0-3s5-0-2s3-0-0-5s7-|-(7)-0-3s5-0-2s3-0-0-5s7--||-7---3s5---2s3-----5s7-|-(7)---3s5---2s3-----5s7--||-----------------------|--------------------------||-----------------------|--------------------------|
|-------------------------|------------------------||-------------------------|------------------------||-(7)-0-3s5-0-2s3-0-0-5s7-|-(7)-0-3s5-0-2s3-0-0s12-||-(7)---3s5---2s3-----5s7-|-(7)---3s5---2s3---0s12-||-------------------------|------------------------||-------------------------|------------------------|
|---------------------------|---------------------------||----------------------3s12-|-(12)----------------------||-(12)-0-3s5-0-2s3-0-0-3s12-|-(12)-0-3s5-0-2s3-0-0-5s7--||-(12)---3s5---2s3-----3s12-|-(12)---3s5---2s3----------||---------------------------|---------------------------||---------------------------|---------------------------|
D5 (A)|-----------------------|----------------------|------------|--------------||-----------------------|----------------------|------------|--------------||-(7)-0-3s5-0-2s3-0-0-7s|=12-0-3s5-0-2s3-0-0-5-|-(5)--------|-(5)-------3s=||-------3s5---2s3-------|------3s5---2s3-----5-|-(5)--------|-(5)-------3s=||-----------------------|--------------------5-|-(5)--------|-(5)----------||-----------------------|----------------------|------------|--------------|
Verses 1 & 2||----------------|---------------------|---------------|-------------|||o---------------|-------3s12-(12)-----|---------------|-------------|||--2-0-2s3s5---0-|-3s2-0-3s12-(12)---3s|=2-0-2s3s5---0-|-3s===0---3s=|||--2-0-2s3s5---0-|-3s2-0-3s12-(12)---3s|=2-0-2s3s5---0-|-3s===0---3s=|||o---------------|---------------------|---------------|-------------|||----------------|---------------------|---------------|-------------|
|---------------|---------------------|---------------|-----------|--------||---------------|-------3s12-(12)-----|---------------|-----------|--------||-2-0-2s3s5---0-|-3s2-0-3s12-(12)---3s|=2-0-2s3s5---0-|-3s===0----|-(0)----||-2-0-2s3s5---0-|-3s2-0-3s12-(12)---3s|=2-0-2s3s5---0-|-3s===0----|-(0)----||---------------|---------------------|---------------|-----------|--------||---------------|---------------------|---------------|-----------|--------|
A5C5 D5 (A) A5C5 D5 (A)|---------------|-----------------|----------------|-----------------------||---------------|-----------------|----------------|-----------------------||-0-3--5-(5)----|-(5)---3-(3)s=0--|-0-3--5-(5)---0-|-3s7-0-3s5-3-(3)s===2--||-0-3--5-(5)----|-(5)---3-(3)s=0--|-0-3--5-(5)-----|-----------------------||-0-3--5-(5)----|-(5)-------------|-0-3--5-(5)-----|-----------------------||---------------|-----------------|----------------|-----------------------|
A5C5 D5 (A)|----------------|----------------------||----------------|----------------------||-0-3--5-(5)---0-|-3s7-0-3s5-3-(3)--0-0s||-0-3--5-(5)-----|--------------------0s||-0-3--5-(5)-----|----------------------||----------------|----------------------|
|-----------------------|--------------------------||-----------------------|--------------------------||-7-0-3s5-0-2s3-0-0-5s7-|-(7)-0-3s5-0-2s3-0-0-5s7--||-7---3s5---2s3-----5s7-|-(7)---3s5---2s3-----5s7--||-----------------------|--------------------------||-----------------------|--------------------------|
|-------------------------|------------------------||-------------------------|------------------------||-(7)-0-3s5-0-2s3-0-0-5s7-|-(7)-0-3s5-0-2s3-0-0s12-||-(7)---3s5---2s3-----5s7-|-(7)---3s5---2s3---0s12-||-------------------------|------------------------||-------------------------|------------------------|
|---------------------------|---------------------------||----------------------3s12-|-(12)----------------------||-(12)-0-3s5-0-2s3-0-0-3s12-|-(12)-0-3s5-0-2s3-0-0-5s7--||-(12)---3s5---2s3-----3s12-|-(12)---3s5---2s3----------||---------------------------|---------------------------||---------------------------|---------------------------|
D5|-----------------------|----------------------|------------|--------------|||-----------------------|----------------------|------------|--------------|||-(7)-0-3s5-0-2s3-0-0-7s|=12-0-3s5-0-2s3-0-0-5-|-(5)--------|-(5)-------3s=|||-------3s5---2s3-------|------3s5---2s3-----5-|-(5)--------|-(5)-------3s=|||-----------------------|--------------------5-|-(5)--------|-(5)----------|||-----------------------|----------------------|------------|--------------||
1.|---------------|-----------------12----|---------------|-----------------||---------------|-------3s12-(12)-------|---------------|-----------------||-2-0-2s3s5---0-|-3s2-0-3s12-(12)-----3s|=2-0-2s3s5---0-|-3s==0-(0)---3s==||-2-0-2s3s5---0-|-3s2-0-3s12-(12)-----3s|=2-0-2s3s5---0-|-3s==0-(0)---3s==||---------------|-----------------------|---------------|-----------------||---------------|-----------------------|---------------|-----------------|
|---------------|---------------------|---------------|--------------|||---------------|-------3s12-(12)-----|---------------|-------------o|||-2-0-2s3s5---0-|-3s2-0-3s12-(12)---3s|=2-0-2s3s5---0-|-3-------3\---|||-2-0-2s3s5---0-|-3s2-0-3s12-(12)---3s|=2-0-2s3s5---0-|-3-------3\---|||---------------|---------------------|---------------|-------------o|||---------------|---------------------|---------------|--------------||
2.100 D7 D13D7 D13 D7 D13D7 D13|-8-8-7--8-8-7--|-8-8-7--8-8-7--||-8-8-7--8-8-7--|-8-8-7--8-8-7--||-5-5-5--5-5-5--|-5-5-5--5-5-5--||-5-5-5--5-5-5--|-5-5-5--5-5-5--||-5-5-5--5-5-5--|-5-5-5--5-5-5--||---------------|---------------|
(A)|---------------------------|---------------------------||---------------------------|---------------------------||--3-2-0-3-2-0-0-5-3-0-(0)--|--3-2-0-3-2-0-0-5-3-0-(0)--||--3-2-0-3-2-0-0-5-3-0-(0)--|--3-2-0-3-2-0-0-5-3-0-(0)--||---------------------------|---------------------------||---------------------------|---------------------------|
9/8|---------------------------|-----------------------------||---------------------------|-----------------------------||--3-2-0-3-2-0-0-5-3-0-(0)--|--3-2-0-3-2-0-0-5-3-0-(0)----||--3-2-0-3-2-0-0-5-3-0-(0)--|--3-2-0-3-2-0-0-5-3-0-(0)----||---------------------------|-----------------------------||---------------------------|-----------------------------|
Verse 3 D7 D13D7 D13 D7 D13D7 D13 D7 D13D7 D13 D7 D13D7 D13 4/4||--8-8-7--8-8-7--|-8-8-7--8-8-7--|-8-8-7--8-8-7--|-8-8-7--8-8-7-------|||o-8-8-7--8-8-7--|-8-8-7--8-8-7--|-8-8-7--8-8-7--|-8-8-7--8-8-7-0-0-0-|||--5-5-5--5-5-5--|-5-5-5--5-5-5--|-5-5-5--5-5-5--|-5-5-5--5-5-5-0-0-0-|||--5-5-5--5-5-5--|-5-5-5--5-5-5--|-5-5-5--5-5-5--|-5-5-5--5-5-5-0-0-0-|||o-5-5-5--5-5-5--|-5-5-5--5-5-5--|-5-5-5--5-5-5--|-5-5-5--5-5-5-0-0-0-|||----------------|---------------|---------------|--------------------|
(A)|---------------------------|---------------------------||---------------------------|---------------------------||--3-2-0-3-2-0-0-5-3-0-(0)--|--3-2-0-3-2-0-0-5-3-0-(0)--||--3-2-0-3-2-0-0-5-3-0-(0)--|--3-2-0-3-2-0-0-5-3-0-(0)--||---------------------------|---------------------------||---------------------------|---------------------------|
9/8|---------------------------|------------------------------|||---------------------------|-----------------------------o|||--3-2-0-3-2-0-0-5-3-0-(0)--|--3-2-0-3-2-0-0-5-3-0-(0)-----|||--3-2-0-3-2-0-0-5-3-0-(0)--|--3-2-0-3-2-0-0-5-3-0-(0)-----|||---------------------------|-----------------------------o|||---------------------------|------------------------------||
D7 D13D7 D13 D7 D13D7 D13 C7 C13C7 C13 C7 C13C7 C13 4/4|-8-8-7--8-8-7--|-8-8-7--8-8-7--|-6-6-5--6-6-5--|-6-6-5--6-6-5---||-8-8-7--8-8-7--|-8-8-7--8-8-7--|-6-6-5--6-6-5--|-6-6-5--6-6-5---||-5-5-5--5-5-5--|-5-5-5--5-5-5--|-3-3-3--3-3-3--|-3-3-3--3-3-3---||-5-5-5--5-5-5--|-5-5-5--5-5-5--|-3-3-3--3-3-3--|-3-3-3--3-3-3---||-5-5-5--5-5-5--|-5-5-5--5-5-5--|-3-3-3--3-3-3--|-3-3-3--3-3-3---||---------------|---------------|---------------|----------------|
(A)|---------------------------|---------------------------||---------------------------|---------------------------||--3-2-0-3-2-0-0-5-3-0-(0)--|--3-2-0-3-2-0-0-5-3-0-(0)--||--3-2-0-3-2-0-0-5-3-0-(0)--|--3-2-0-3-2-0-0-5-3-0-(0)--||---------------------------|---------------------------||---------------------------|---------------------------|
|---------------------------|-----------------------------||---------------------------|-----------------------------||--3-2-0-3-2-0-0-5-3-0-(0)--|--3-2-0-3-2-0-0-5-3-0-(0)----||--3-2-0-3-2-0-0-5-3-0-(0)--|--3-2-0-3-2-0-0-5-3-0-(0)----||---------------------------|-----------------------------||---------------------------|-----------------------------|
First Guitar Solo|------------------------------------|---------------------------------------||------------------------------------|---------------------------------------||--3-0-2s3-0-0-0-3s0-----0-(0)-0-0-0-|-0-0-3s0-----0-0-0-3s0-----0-0-7s12s3--||--3-0-2s3-------3s0-2s3-0-(0)-------|-----3s0-2s3-------3s0-2s3-0-0-7s12s3--||------------------------------------|---------------------------------------||------------------------------------|---------------------------------------|
|----------------------------------|--------------------------------------||----------------------------------|--------------------------------------||--0-3-0-3-0-0-0-3-2s3-0-(0)-12s10-|-(10)-0-3-0---0-0-0-2s3-0-2s3-0-(0)-0-||----3-0-3-------------------------|--------3-0-3-----------------0-(0)-0-||----------------------------------|--------------------------------------||----------------------------------|--------------------------------------|
|---------------------------|---------------------------||---------------------------|---------------------------||-3s2-0s5-(5)-3s2-0s7-3s2-0-|-3s2-0s5-(5)-3s2-0s7-3s2-0-||---------------------------|---------------------------||---------------------------|---------------------------||---------------------------|---------------------------|
|----------------------------------------||---------------------------12-12---12s5-||-6-7-0-6-7-0-9-10-0-9-10-0-12-12-0-12s5-||----------------------------------------||----------------------------------------||----------------------------------------|
|---------------------------------------||--------------10s12-(12)---------------||--0-0-0-3s2-0-10s12-(12)-0-0-0-3s2-0-0-||-------------------------------3s2-0-0-||---------------------------------------||---------------------------------------|
|----------------12------------12-11-------------15-|
|----------11s12----11s12-(12)-------12-15-15-15----||-0-7S12-0-11s12----11s12-(12)-------------15-------||-0-7S12-0------------------------------------------||---------------------------------------------------||---------------------------------------------------|
|-------15-------15-------12-------12-------12----||----15----15-15----11-12----11-12----11-12----3--||-15-------15-------------------------------------||-------------------------------------------------||-------------------------------------------------||-------------------------------------------------|
|---5-----8-----8-----8-----8-----|-5-5-3-3-------------------------||-5---4-5-8-7-8-8-7-8---7-8---4-5-|---5-3-3-------------------------||---------------------------------|---------3-3-0-3s2-0-3-2-0-0-0-0-||---------------------------------|---------------3s2-0-3-2-0-0-0-0-||---------------------------------|---------------------------------||---------------------------------|---------------------------------|
|---------------------------------------|------------------------------------||---------------------------------------|------------------------------------||-0-0-2s3-0-0-0-0-0-2s3-0-2s3-0-(0)-0-0-|-0-2s3-0-(0)-0-0-0-3s2-0-5-(5)-5-0--||-0-0-2s3-0-0-----------------0-(0)-----|-0-2s3-0-(0)-------3s2-0-5-(5)-5-0--||---------------------------------------|------------------------------------||---------------------------------------|------------------------------------|
|-----------------------------2-|-3---2-3-------2-3---2-3----------||-----------------------------2-|-3---2-3--------------------------||-0-2s3-0-0-0-3-0-0-0-(0)-0-0---|---0-----0-0-0-----0-----0-0-0-0--||-0-2s3-0-0-0-3-0-0-0-(0)-------|----------------------------------||-------------------------------|----------------------------------||-------------------------------|----------------------------------|
|------------12----12----12----12----12----12----12-||-7s12-12-12----12----12----12----12----12----12-12-||-7s12----------12----12----12----12----12----12----||---------------------------------------------------||---------------------------------------------------||---------------------------------------------------|
9/8|-12-15-15-15----15-15-15----15-15-------15-15s10---||-------------15----------15-------15-15----15s10---||---------------------------------------------------||---------------------------------------------------||---------------------------------------------------||---------------------------------------------------|
Verse 4 D7 D13D7 D13 D7 D13D7 D13 D7 D13D7 D13 D7 D13D7 D13 4/4||--8-8-7--8-8-7--|-8-8-7--8-8-7--|-8-8-7--8-8-7--|-8-8-7--8-8-7-------|||o-8-8-7--8-8-7--|-8-8-7--8-8-7--|-8-8-7--8-8-7--|-8-8-7--8-8-7-0-0-0-|||--5-5-5--5-5-5--|-5-5-5--5-5-5--|-5-5-5--5-5-5--|-5-5-5--5-5-5-0-0-0-|||--5-5-5--5-5-5--|-5-5-5--5-5-5--|-5-5-5--5-5-5--|-5-5-5--5-5-5-0-0-0-|||o-5-5-5--5-5-5--|-5-5-5--5-5-5--|-5-5-5--5-5-5--|-5-5-5--5-5-5-0-0-0-|||----------------|---------------|---------------|--------------------|
(A)|---------------------------|---------------------------||---------------------------|---------------------------||--3-2-0-3-2-0-0-5-3-0-(0)--|--3-2-0-3-2-0-0-5-3-0-(0)--||--3-2-0-3-2-0-0-5-3-0-(0)--|--3-2-0-3-2-0-0-5-3-0-(0)--||---------------------------|---------------------------||---------------------------|---------------------------|
9/8|---------------------------|------------------------------|||---------------------------|-----------------------------o|||--3-2-0-3-2-0-0-5-3-0-(0)--|--3-2-0-3-2-0-0-5-3-0-(0)-----|||--3-2-0-3-2-0-0-5-3-0-(0)--|--3-2-0-3-2-0-0-5-3-0-(0)-----|||---------------------------|-----------------------------o|||---------------------------|------------------------------||
D7 D13D7 D13 D7 D13D7 D13 C7 C13C7 C13 C7 C13C7 C13 4/4|-8-8-7--8-8-7--|-8-8-7--8-8-7--|-6-6-5--6-6-5--|-6-6-5--6-6-5---||-8-8-7--8-8-7--|-8-8-7--8-8-7--|-6-6-5--6-6-5--|-6-6-5--6-6-5---||-5-5-5--5-5-5--|-5-5-5--5-5-5--|-3-3-3--3-3-3--|-3-3-3--3-3-3---||-5-5-5--5-5-5--|-5-5-5--5-5-5--|-3-3-3--3-3-3--|-3-3-3--3-3-3---||-5-5-5--5-5-5--|-5-5-5--5-5-5--|-3-3-3--3-3-3--|-3-3-3--3-3-3---||---------------|---------------|---------------|----------------|
(A)|---------------------------|---------------------------||---------------------------|---------------------------||--3-2-0-3-2-0-0-5-3-0-(0)--|--3-2-0-3-2-0-0-5-3-0-(0)--||--3-2-0-3-2-0-0-5-3-0-(0)--|--3-2-0-3-2-0-0-5-3-0-(0)--||---------------------------|---------------------------||---------------------------|---------------------------|
|---------------------------|-----------------------------||---------------------------|-----------------------------||--3-2-0-3-2-0-0-5-3-0-(0)--|--3-2-0-3-2-0-0-5-3-0-(0)----||--3-2-0-3-2-0-0-5-3-0-(0)--|--3-2-0-3-2-0-0-5-3-0-(0)----||---------------------------|-----------------------------||---------------------------|-----------------------------|
Second Guitar Solo|-------------------------------------------||-------------------------------------------||-0-0-2s3-0-2s3-0-0-0-2s3-0-----0-(0)-0-0-0-||-0-0-2s3-0-2s3-0-0-0-2s3-0-2s3-0-(0)-0-0-0-||-------------------------------------------||-------------------------------------------|
|---------------------------------------||---------------------------------------||-0-0-2s3-0-----0-0-0-2s3-0-----0-0-12s=||-0-0-2s3-0-2s3-0-0-0-2s3-0-2s3-0-0-12s=||---------------------------------------||---------------------------------------|
|----------------------------------------||----------------------------------------||-3-0-2s3-0-2s3-0-0-0-----------0-(0)-12s||-3-0-2s3-0-2s3-0-0-0-2s3-0-2s3-0-(0)-12s||----------------------------------------||----------------------------------------|
|---------------------------------------||---------------------------------------||-3-0-2s3-0-2s3-0-0-0-----------0-(0)-0-||-3-0-2s3-0-2s3-0-0-0-2s3-0-2s3-0-(0)-0-||---------------------------------------||---------------------------------------|
|-----------5s3-----5s3-----5s3-----|-5s3-----------------------------||-----------------------------------|---------------------------------||-2-3-2-3s2-------------------------|--------------------3-0-0-0-0-0--||-2-3-2-3s2-----5s3-----5s3-----5s3-|-----5s3------0-3-0--------------||-----------------------------------|----------0-3--------------------||-----------------------------------|---------------------------------|
|---------------------------------||---------------------------------||-2s3-2-0-3s5-(5)-0-3s5-0-2s3-2-0-||-----------------------0-2s3-2-0-||---------------------------------||---------------------------------|
|----------------12-------15-------12---------||-8-8-8-10s12-12----14-15----11-12------------||-------------------------------------12s10-0-||---------------------------------------------||---------------------------------------------||---------------------------------------------|
|-----------------------------|-----------------------------------------------||-----------------------------|-----------------------------------------------||-6-7-0-5-(5)-5-0-3s2-0-------|-6-7-0-3s5-(5)-5-0-3s2-0-7s12-(12)-12-12-12s10-||-----------------3s2-0-------|-------------------------7s12-(12)-12-12-------||-----------------------3s2-0-|-----------------------------------------------||-----------------------------|-----------------------------------------------|
|--------------------------------------------||--------------------------------------------||--12s10--10s12s7--0-2s3-2-0-3s5-0-0-2s3-2-0-||--------------------------------------------||--------------------------------------------||--------------------------------------------|
|----------------------------------||----------------------------------||---------0-2s3-0-0-0-6-7-3-2-0-0--||----------------------------------||-2s3-0-3--------------------------||----------------------------------|
|--------------------------------------------------------||-----------------------------------------------------11-||-0-10s12-10s12-(12)-10s12-12s10-(10)-10-0-10s12-10-0-11-||--------------------------------------------------------||--------------------------------------------------------||--------------------------------------------------------|
|----12-------12-------------------------||-12----11-12----11-12-3-3-2-0-0---------||-12-----------------------------3-2-0-0-||----------------------------------------||----------------------------------------||----------------------------------------|
|-------12----12----12----12----12----12----12----||-10s12-12-12-12-12-12-12-12-12-12-12-12-12-12-12-||-10s12----12----12----12----12----12----12----12-||-10s12-------------------------------------------||-------------------------------------------------||-------------------------------------------------|
|----15-15-15-15-15-15-15----------15-15-15-15s10----||-12-15-15----15-15-15-15-15-15-15----15-15-15s10-0--||-12-15-15----15-15-15-15-15-15-15----15-15-15s10----||----------------------------------------------------||----------------------------------------------------||----------------------------------------------------|
|--------------------------|--------------------------||--------------------------|--------------------------||--3-2-0-3-2-0-3-2-0-3-0---|--3-2-0-3-2-0-3-2-0-3-0---||--3-2-0-3-2-0-3-2-0-3-0---|--3-2-0-3-2-0-3-2-0-3-0---||--------------------------|--------------------------||--------------------------|--------------------------|
|--------------------------|--------------------------||--------------------------|--------------------------||--3-2-0-3-2-0-3-2-0-3-0---|--3-2-0-3-2-0-3-2-0-3-0---||--3-2-0-3-2-0-3-2-0-3-0---|--3-2-0-3-2-0-3-2-0-3-0---||--------------------------|--------------------------||--------------------------|--------------------------|
Verse 5 A5C5 D5 (A) A5C5 D5 (A)|---------------|-----------------|----------------|---------------------||---------------|-------------0---|----------------|---------------------||-0-3--5-(5)----|-5-5-3-0-(0)-----|-0-3--5-(5)--5--|-5-3--0-(0)-3s12s=3--||-0-3--5-(5)----|-5-5-3-0-(0)-----|-0-3--5-(5)--5--|-5-3--0-(0)-3s12s=3--||---------------|-----------------|----------------|---------------------||---------------|-----------------|----------------|---------------------|
A5C5 D5 (A) A5C5 D5 (A)|-----------------|--------------------|------------------|--------------------||-----------------|--------------------|------------------|--------------------||-0-3--5-(5)-5-5--|-5-3--0-(0)-3s12s=3-|-0-3--5-(5)-5-5-5-|-5-3--0-(0)-3s12s=3-||-0-3--5-(5)-5-5--|-5-3--0-(0)-3s12s=3-|-0-3--5-(5)-5-5-5-|-5-3--0-(0)-3s12s=3-||-----------------|--------------------|------------------|--------------------||-----------------|--------------------|------------------|--------------------|
A5C5 D5 (A) A5C5 D5 (A)|----------------|--------------------|---------------|--------------------||----------------|--------------------|---------------|--------------------||-0-3--5-(5)--5--|-5-3--0-(0)-3s12s=3-|-0-3--5-(5)----|-5-3--0-(0)-3s12s=3-||-0-3--5-(5)--5--|-5-3--0-(0)-3s12s=3-|-0-3--5-(5)----|-5-3--0-(0)-3s12s=3-||----------------|--------------------|---------------|--------------------||----------------|--------------------|---------------|--------------------|
A5C5 D5 (A) A5C5 D5 (A)|-----------------|--------------------|----------------|------------------||-----------------|--------------------|----------------|------------------||-0-3--5-(5)--5-5-|-5-3--0-(0)-3s12s=3-|-0-3--5-(5)---3-|-5-3-5-3-5-3-0-0--||-0-3--5-(5)--5-5-|-5-3--0-(0)-3s12s=3-|-0-3--5-(5)---3-|-5-3-5-3-5-3-0-0--||-----------------|--------------------|----------------|------------------||-----------------|--------------------|----------------|------------------|
|-----------------------|-----------------------||-----------------------|-----------------------||-3s7-0-3s5-0-3s0-0-3s7-|-(7)-0-3s5-0-3s0-0-3s7-||-------------3s0-------|-------------3s0-------||-----------------------|-----------------------||-----------------------|-----------------------|
|-----------------------|------------------------||-----------------------|------------------------||-(7)-0-3s5-0-3s0-0-3s7-|-(7)-0-3s5-0-3s0-0-3s12-||-------------3s0-------|-------------3s0--------||-----------------------|------------------------||-----------------------|------------------------|
|-------------------------|-------------------------||-------------------------|-------------------------||-(12)-0-3s5-0-3s0-0-3s12-|-(12)-0-3s5-0-3s0-0-3s12-||--------------3s0--------|--------------3s0--------||-------------------------|-------------------------||-------------------------|-------------------------|
D5|-------------------------|------------------------||-------------------------|------------------------||-(12)-0-3s5-0-3s0-0-3s12-|-(12)-0-3s5-0-3s0-0-5---||--------------3s0--------|--------------3s0---5---||-------------------------|--------------------5---||-------------------------|------------------------|
Outro|------------|------------|------------|------------|------------|--------||------------|------------|------------|------------|------------|--------||-(5)--------|-(5)--------|-(5)--------|-(5)--------|-(5)--------|-(5)----||-(5)--------|-(5)--------|-(5)--------|-(5)--------|-(5)--------|-(5)----||-(5)--------|-(5)--------|-(5)--------|-(5)--------|-(5)--------|-(5)----||------------|------------|------------|------------|------------|--------|
(A)|----------|---------------|---------------------||----------|---------------|-------3s12-(12)-----||--------3s|=2-0-2s3s5---0-|-3s2-0-3s12-(12)---3s||--------3s|=2-0-2s3s5---0-|-3s2-0-3s12-(12)---3s||----------|---------------|---------------------||----------|---------------|---------------------|
|---------------|------------------||---------------|------------------||-2-0-2s3s5---0-|-3s==0-(0)---3s===||-2-0-2s3s5---0-|-3s==0-(0)---3s===||---------------|------------------||---------------|------------------|
|---------------|---------------------|---------------|-----------------||---------------|-------3s12-(12)-----|---------------|-----------------||-2-0-2s3s5---0-|-3s2-0-3s12-(12)---3s|=2-0-2s3s5---0-|-3s==0-(0)---3s==||-2-0-2s3s5---0-|-3s2-0-3s12-(12)---3s|=2-0-2s3s5---0-|-3s==0-(0)---3s==||---------------|---------------------|---------------|-----------------||---------------|---------------------|---------------|-----------------|
|---------------|---------------------|---------------|----------------------||---------------|-------3s12-(12)-----|---------------|-------3s12-(12)------||-2-0-2s3s5---0-|-3s2-0-3s12-(12)---3s|=2-0-2s3s5---0-|-3s2-0-3s12-(12)---3s=||-2-0-2s3s5---0-|-3s2-0-3s12-(12)---3s|=2-0-2s3s5---0-|-3s2-0-3s12-(12)---3s=||---------------|---------------------|---------------|----------------------||---------------|---------------------|---------------|----------------------|
|---------------|---------------------|---------------|--------------|--------||---------------|-------3s12-(12)-----|---------------|--------------|--------||-2-0-2s3s5---0-|-3s2-0-3s12-(12)---3s|=2-0-2s3s5---0-|-3s==0-(0)----|-(0)----||-2-0-2s3s5---0-|-3s2-0-3s12-(12)---3s|=2-0-2s3s5---0-|-3s==0-(0)----|-(0)----||---------------|---------------------|---------------|--------------|--------||---------------|---------------------|---------------|--------------|--------|
|-----------------------|-----------------------||-----------------------|-----------------------||-3s7-0-3s5-0-3s0-0-3s7-|-(7)-0-3s5-0-3s0-0-3s7-||-------------3s0-------|-------------3s0-------||-----------------------|-----------------------||-----------------------|-----------------------|
|------------------------|-------------------------||------------------------|-------------------------||-(7)-0-3s5-0-3s0-0-3s12-|-(12)-0-3s5-0-3s0-0-3s12-||-------------3s0--------|--------------3s0---3s12-||------------------------|-------------------------||------------------------|-------------------------|
|-------------------------|------------------------||-------------------------|------------------------||-(12)-0-3s5-0-3s0-0-3s12-|-(12)-0-3s5-0-3s0-0-3s7-||-(12)---------3s0---3s12-|-(12)---------3s0-------||-------------------------|------------------------||-------------------------|------------------------|
|----------------------|------------------------||-------------3-0------|-------------3-0--------||-(7)-0-3s5-0-3-0--3s7-|-(7)-0-3s5-0-3-0--3s12--||----------------------|------------------------||----------------------|------------------------||----------------------|------------------------|
|------------------------|-----------------------||--------------3-0-------|--------------3-0------||-(12)-0-3s5-0-3-0--3s12-|-(12)-0-3s5-0-3-0--3s7-||------------------------|-----------------------||------------------------|-----------------------||------------------------|-----------------------|
|-----------------------|-------------------------||-----------------------|-------------------------||-(7)-0-3s5-0-3-0--3s12-|-(12)-0-3s5-0-3-0--3s12--||-------------3-0-------|--------------3-0--------||-----------------------|-------------------------||-----------------------|-------------------------|
|------------------------|-----------------------||------------------------|-----------------------||-(12)-0-3s5-0-3-0--3s12-|-(12)-0-3s5-0-3-0--3s7-||------0-------3-0-------|------0-------3-0------||------------------------|-----------------------||------------------------|-----------------------|
|------------------------------|--------------------------------||------------------------------|--------------------------------||-(7)-0-3s5-0---0-3-0---0-3s12-|-(12)-0-3s5-0---0-3-0---0-3s12--||-------------3-------3--------|--------------3-------3---------||------------------------------|--------------------------------||------------------------------|--------------------------------|
|-------------------------------|-------------------------------||-------------------------------|-------------------------------||-(12)-0-3s5-0---0-3-0---0-3s12-|-(12)-0-3s5-0---0-3-0---0-3s12-||--------------3-------3--------|--------------3-------3--------||-------------------------------|-------------------------------||-------------------------------|-------------------------------|
|-------------------------------|----------------------------------||-------------------------------|----------------------------------||-(12)-0-3s5-0---0-3-0---0-3s12-|-(12)-0-3s5-0---0-3-0---0-3s12----||--------------3-------3--------|--------------3-------3-----------||-------------------------------|----------------------------------||-------------------------------|----------------------------------|
|-------------------------------|-------------------------------||-------------------------------|-------------------------------||-(12)-0-3s5-0---0-3-0---0-3s12-|-(12)-0-3s5-0---0-3-0---0-3s12-||--------------3-------3--------|--------------3-------3--------||-------------------------------|-------------------------------||-------------------------------|-------------------------------|
|------------------------------|--------------------------------||------------------------------|--------------------------------||-(12)-0-3s5-0---0-3-0---0-3s7-|-(7)-0-3s5-0---0-3-0---0-3s7----||--------------3-------3-------|-------------3-------3----------||------------------------------|--------------------------------||------------------------------|--------------------------------|
|-------------------------------|---------------------------------------||-------------------------------|-12-10s12-12-10-12---------------------||-(7)-0-3s5-0---0-3-0---0-10s12-|-12-10s12-12-10-12-0---0-3-0---0-10s12-||-------------3-------3---------|---------------------3-------3---------||-------------------------------|---------------------------------------||-------------------------------|---------------------------------------|
|---------------------------------------||-12-10s12-12-10-12---------------------||-12-10s12-12-10-12-0---0-3-0---0-10s12-||---------------------3-------3---------||---------------------------------------||---------------------------------------|
|---------------------------------12s15--||-12-10s12-12-10-12---------------12s15--||-12-10s12-12-10-12-0---0-3-0---0-12s15--||---------------------3-------3----------||----------------------------------------||----------------------------------------|
3x||--15-15-15-15-15---------------12s15-|-15-15-15-15-15---------------12s15--||||o-15-15-15-15-15---------------12s15-|-15-15-15-15-15---------------12s15-o||||--15-15-15-15-15-0---0-3-0---0-12s15-|-15-15-15-15-15-0---0-3-0---0-12s15--||||-------------------3-------3---------|------------------3-------3----------||||o------------------------------------|------------------------------------o||||-------------------------------------|-------------------------------------||
|-15-15-15-15-15--------------------||-15-15-15-15-15--------------------||-15-15-15-15-15-0---0-3-0---0-7s12-||------------------3-------3--------||-----------------------------------||-----------------------------------|
|-------------------------|--------------------------||-------------------------|--------------------------||-(12)-0-3s5-0-3-0-0-7s12-|-(12)-0-3s5-0-3-0-0-7s12--||--------------3-0--------|--------------3-0---------||-------------------------|--------------------------||-------------------------|--------------------------|
|------------------------|---------------------|--------*||------------------------|---------------------|--------*||-(12)-0-3s5-0-3-0-0-3s7-|-(7)-0-3s5-0-3-0-0-5-|-(5)----*||--------------3-0-------|-------------3-0---5-|-(5)----*||------------------------|-------------------5-|-(5)----*||------------------------|---------------------|--------*|
Tap to rate this tab
 
# A B C D E F G H I J K L M N O P Q R S T U V W X Y Z