Les Colocs - La Rue Principale tab

Les Colocs - La rue principale
Partitions: Patrick Chamberland
Email: sk8_pat13@hotmail.com

very easy song

E||------------------|------------------|------------------|B||------------------|------------------|------------------|G||------------------|------------------|------------------|D||------------------|------------------|------------------|A||------------------|------------------|------------------|E||------------------|------------------|------------------|
------------------|------------------|------------------|------------------|------------------|------------------|------------------|------------------|------------------|------------------|------------------|------------------|------------------|------------------|------------------|------------------|------------------|------------------|
--3----3-3--3--3----3-3--3--|--3----3-3--3--3----3-3--3--|--0----0-0--0--0----0-0--0--|--0----0-0--0--0----0-0--0--|--0----0-0--0--0----0-0--0--|--0----0-0--0--0----0-0--0--|--0----0-0--0--0----0-0--0--|--0----0-0--0--0----0-0--0--|--2--x-2-2--2--2--x-2-2--2--|--2--x-2-2--2--2--x-2-2--2--|--3--x-3-3--3--3--x-3-3--3--|--3--x-3-3--3--3--x-3-3--3--|
--3----3-3--3--3----3-3--3--|--2----2-2--2--2----2-2--2--|--0----0-0--0--0----0-0--0--|--3----3-3--3--3----3-3--3--|--0----0-0--0--0----0-0--0--|--2--x-2-2--2--2--x-2-2--2--|--0----0-0--0--0----0-0--0--|--0--x-0-0--0--0--x-0-0--0--|--2--x-2-2--2--2--x-2-2--2--|----------------------------|--3--x-3-3--3--3--x-3-3--3--|----------------------------|
--0----0-0--0--2----2-2--2--|--0----0-0--0--0----0-0--0--|--1----1-1--1--3----3-3--3--|--0----0-0--0--0----0-0--0--|--0--x-0-0--0--2--x-2-2--2--|--0----0-0--0--0----0-0--0--|--2--x-2-2--2--0--x-0-0--0--|--2----2-2--2--2----2-2--2--|--3----3-3--3---------------|--2--x-2-2--2--2--x-2-2--2--|----------------------------|--0--x-0-0--0--0--x-0-0--0--|
--0----0-0--0--2----2-2--2--|--3----3-3--3--3----3-3--3--|--1----1-1--1--3----3-3--3--|--0----0-0--0--0----0-0--0--|--0--x-0-0--0--2--x-2-2--2--|--0----0-0--0--0----0-0--0--|--2--x-2-2--2--0--x-0-0--0--|--0----0-0--0--0----0-0--0--|--3----3-3--3---------------|--2--x-2-2--2--2--x-2-2--2--|----------------------------|--3--x-3-3--3--3--x-3-3--3--|
--3----3-3--3--3----3-3--3--|--3----3-3--3--3----3-3--3--|--0----0-0--0--0----0-0--0--|--0----0-0--0--0----0-0--0--|--0----0-0--0--0----0-0--0--|--0----0-0--0--0----0-0--0--|--0----0-0--0--0----0-0--0--|--0----0-0--0--0----0-0--0--|--2--x-2-2--2--2--x-2-2--2--|--2--x-2-2--2--2--x-2-2--2--|--3--x-3-3--3--3--x-3-3--3--|--3--x-3-3--3--3--x-3-3--3--|
--3----3-3--3--3----3-3--3--|--3----3-3--3--3----3-3--3--|--0----0-0--0--0----0-0--0--|--0----0-0--0--0----0-0--0--|--0----0-0--0--0----0-0--0--|--0----0-0--0--0----0-0--0--|--0----0-0--0--0----0-0--0--|--0----0-0--0--0----0-0--0--|--2--x-2-2--2--2--x-2-2--2--|--2--x-2-2--2--2--x-2-2--2--|--3--x-3-3--3--3--x-3-3--3--|--3--x-3-3--3--3--x-3-3--3--|
--3----3-3--3--3----3-3--3--|--2----2-2--2--2----2-2--2--|--0----0-0--0--0----0-0--0--|--3----3-3--3--3----3-3--3--|--0----0-0--0--0----0-0--0--|--2--x-2-2--2--2--x-2-2--2--|--0----0-0--0--0----0-0--0--|--0--x-0-0--0--0--x-0-0--0--|--2--x-2-2--2--2--x-2-2--2--|----------------------------|--3--x-3-3--3--3--x-3-3--3--|----------------------------|
--0----0-0--0--2----2-2--2--|--0----0-0--0--0----0-0--0--|--1----1-1--1--3----3-3--3--|--0----0-0--0--0----0-0--0--|--0--x-0-0--0--2--x-2-2--2--|--0----0-0--0--0----0-0--0--|--2--x-2-2--2--0--x-0-0--0--|--2----2-2--2--2----2-2--2--|--3----3-3--3---------------|--2--x-2-2--2--2--x-2-2--2--|----------------------------|--0--x-0-0--0--0--x-0-0--0--|
--0----0-0--0--2----2-2--2--|--3----3-3--3--3----3-3--3--|--1----1-1--1--3----3-3--3--|--0----0-0--0--0----0-0--0--|--0--x-0-0--0--2--x-2-2--2--|--0----0-0--0--0----0-0--0--|--2--x-2-2--2--0--x-0-0--0--|--0----0-0--0--0----0-0--0--|--3----3-3--3---------------|--2--x-2-2--2--2--x-2-2--2--|----------------------------|--3--x-3-3--3--3--x-3-3--3--|
--3----3-3--3--3----3-3--3--|--3----3-3--3--3----3-3--3--|--0----0-0--0--0----0-0--0--|--0----0-0--0--0----0-0--0--|--0----0-0--0--0----0-0--0--|--0----0-0--0--0----0-0--0--|--0----0-0--0--0----0-0--0--|--0----0-0--0--0----0-0--0--|--2--x-2-2--2--2--x-2-2--2--|--2--x-2-2--2--2--x-2-2--2--|--3--x-3-3--3--3--x-3-3--3--|--3--x-3-3--3--3--x-3-3--3--|
--0----0-0--0--0----0-0--0--|--3----3-3--3--3----3-3--3--|--1----1-1--1--1----1-1--1--|--0----0-0--0--0----0-0--0--|--0----0-0--0--0----0-0--0--|--0----0-0--0--0----0-0--0--|--2--x-2-2--2--2--x-2-2--2--|--0----0-0--0--0----0-0--0--|--3--x-3-3--3--3--x-3-3--3--|--2--x-2-2--2--2--x-2-2--2--|----------------------------|--3--x-3-3--3--3--x-3-3--3--|
--0----0-0--0--0----0-0--0--|--2----2-2--2--2----2-2--2--|--1----1-1--1--1----1-1--1--|--3----3-3--3--3----3-3--3--|--0----0-0--0--0----0-0--0--|--2--x-2-2--2--2--x-2-2--2--|--2--x-2-2--2--2--x-2-2--2--|--0--x-0-0--0--0--x-0-0--0--|--3--x-3-3--3--3--x-3-3--3--|----------------------------|----------------------------|----------------------------|
--3----3-3--3--3----3-3--3--|--3----3-3--3--3----3-3--3--|--0----0-0--0--0----0-0--0--|--0----0-0--0--0----0-0--0--|--0----0-0--0--0----0-0--0--|--0----0-0--0--0----0-0--0--|--0----0-0--0--0----0-0--0--|--0----0-0--0--0----0-0--0--|--2--x-2-2--2--2--x-2-2--2--|--2--x-2-2--2--2--x-2-2--2--|--3--x-3-3--3--3--x-3-3--3--|--3--x-3-3--3--3--x-3-3--3--|
--3----3-3--3--3----3-3--3--|--3----3-3--3--3----3-3--3--|--0----0-0--0--0----0-0--0--|--0----0-0--0--0----0-0--0--|--0----0-0--0--0----0-0--0--|--0----0-0--0--0----0-0--0--|--0----0-0--0--0----0-0--0--|--0----0-0--0--0----0-0--0--|--2--x-2-2--2--2--x-2-2--2--|--2--x-2-2--2--2--x-2-2--2--|--3--x-3-3--3--3--x-3-3--3--|--3--x-3-3--3--3--x-3-3--3--|
--3----3-3--3--3----3-3--3--|--2----2-2--2--2----2-2--2--|--0----0-0--0--0----0-0--0--|--3----3-3--3--3----3-3--3--|--0----0-0--0--0----0-0--0--|--2--x-2-2--2--2--x-2-2--2--|--0----0-0--0--0----0-0--0--|--0--x-0-0--0--0--x-0-0--0--|--2--x-2-2--2--2--x-2-2--2--|----------------------------|--3--x-3-3--3--3--x-3-3--3--|----------------------------|
--0----0-0--0--2----2-2--2--|--0----0-0--0--0----0-0--0--|--1----1-1--1--3----3-3--3--|--0----0-0--0--0----0-0--0--|--0--x-0-0--0--2--x-2-2--2--|--0----0-0--0--0----0-0--0--|--2--x-2-2--2--0--x-0-0--0--|--2----2-2--2--2----2-2--2--|--3----3-3--3---------------|--2--x-2-2--2--2--x-2-2--2--|----------------------------|--0--x-0-0--0--0--x-0-0--0--|
--0----0-0--0--2----2-2--2--|--3----3-3--3--3----3-3--3--|--1----1-1--1--3----3-3--3--|--0----0-0--0--0----0-0--0--|--0--x-0-0--0--2--x-2-2--2--|--0----0-0--0--0----0-0--0--|--2--x-2-2--2--0--x-0-0--0--|--0----0-0--0--0----0-0--0--|--3----3-3--3---------------|--2--x-2-2--2--2--x-2-2--2--|----------------------------|--3--x-3-3--3--3--x-3-3--3--|
--3----3-3--3--3----3-3--3--|--3----3-3--3--0----0-0--0--|--0----0-0--0--0----0-0--0--|--0----0-0--0--1----1-1--1--|--0----0-0--0--0----0-0--0--|--0----0-0--0--0----0-0--0--|--0----0-0--0--0----0-0--0--|--0----0-0--0--2--x-2-2--2--|--2--x-2-2--2--2--x-2-2--2--|--2--x-2-2--2--3--x-3-3--3--|--3--x-3-3--3--3--x-3-3--3--|--3--x-3-3--3---------------|
--3----3-3--3--3----3-3--3--|--0----0-0--0--0----0-0--0--|--0----0-0--0--0----0-0--0--|--0----0-0--0--0----0-0--0--|--0----0-0--0--0----0-0--0--|--0----0-0--0--0----0-0--0--|--0----0-0--0--0----0-0--0--|--2----2-2--2--2----2-2--2--|--2--x-2-2--2--2--x-2-2--2--|--2--x-2-2--2--2--x-2-2--2--|--3--x-3-3--3--3--x-3-3--3--|--0--x-0-0--0--0--x-0-0--0--|
--2----2-2--2--2----2-2--2--|--3----3-3--3--0----0-0--0--|--3----3-3--3--3----3-3--3--|--0----0-0--0--1----1-1--1--|--2--x-2-2--2--2--x-2-2--2--|--0----0-0--0--0----0-0--0--|--0--x-0-0--0--0--x-0-0--0--|--0----0-0--0--2--x-2-2--2--|----------------------------|--2--x-2-2--2--3--x-3-3--3--|----------------------------|--3--x-3-3--3---------------|
--3----3-3--3--0----0-0--0--|--0----0-0----0-2----2-0----0-|--0----0-0--0--0----0-0--0--|--2----2-0----0-3--x-3-2----2-|--0----0-0--0--0----0-0--0--|--2--x-2-0----0-2--x-2-2--x-2-|--0----0-0--0--2----2-2--2--|--2--x-2-2--x-2-0----0-2--x-2-|--2--x-2-2--2--2--x-2-2--2--|--0----0-2--x-2--------0----0-|--3--x-3-3--3--0--x-0-0--0--|---------0----0---------------|
--3----3-3--3--3----3-3--3--|--3----3-3--3--3----3-3--3--|--0----0-0--0--0----0-0--0--|--0----0-0--0--0----0-0--0--|--0----0-0--0--0----0-0--0--|--0----0-0--0--0----0-0--0--|--0----0-0--0--0----0-0--0--|--0----0-0--0--0----0-0--0--|--2--x-2-2--2--2--x-2-2--2--|--2--x-2-2--2--2--x-2-2--2--|--3--x-3-3--3--3--x-3-3--3--|--3--x-3-3--3--3--x-3-3--3--|
--3----3-3--3--3----3-3--3--|--3----3-3--3--3----3-3--3--|--0----0-0--0--0----0-0--0--|--0----0-0--0--0----0-0--0--|--0----0-0--0--0----0-0--0--|--0----0-0--0--0----0-0--0--|--0----0-0--0--0----0-0--0--|--0----0-0--0--0----0-0--0--|--2--x-2-2--2--2--x-2-2--2--|--2--x-2-2--2--2--x-2-2--2--|--3--x-3-3--3--3--x-3-3--3--|--3--x-3-3--3--3--x-3-3--3--|
--3----3-3--3--3----3-3--3--|--2----2-2--2--2----2-2--2--|--0----0-0--0--0----0-0--0--|--3----3-3--3--3----3-3--3--|--0----0-0--0--0----0-0--0--|--2--x-2-2--2--2--x-2-2--2--|--0----0-0--0--0----0-0--0--|--0--x-0-0--0--0--x-0-0--0--|--2--x-2-2--2--2--x-2-2--2--|----------------------------|--3--x-3-3--3--3--x-3-3--3--|----------------------------|
--0----0-0--0--2----2-2--2--|--0----0-0--0--0----0-0--0--|--1----1-1--1--3----3-3--3--|--0----0-0--0--0----0-0--0--|--0--x-0-0--0--2--x-2-2--2--|--0----0-0--0--0----0-0--0--|--2--x-2-2--2--0--x-0-0--0--|--2----2-2--2--2----2-2--2--|--3----3-3--3---------------|--2--x-2-2--2--2--x-2-2--2--|----------------------------|--0--x-0-0--0--0--x-0-0--0--|
--0----0-0--0--2----2-2--2--|--3----3-3--3--3----3-3--3--|--1----1-1--1--3----3-3--3--|--0----0-0--0--0----0-0--0--|--0--x-0-0--0--2--x-2-2--2--|--0----0-0--0--0----0-0--0--|--2--x-2-2--2--0--x-0-0--0--|--0----0-0--0--0----0-0--0--|--3----3-3--3---------------|--2--x-2-2--2--2--x-2-2--2--|----------------------------|--3--x-3-3--3--3--x-3-3--3--|
--3----3-3--3--3----3-3--3--|--0----0-0--0--0----0-0--0--|--0----0-0--0--0----0-0--0--|--1----1-1--1--1----1-1--1--|--0----0-0--0--0----0-0--0--|--0----0-0--0--0----0-0--0--|--0----0-0--0--0----0-0--0--|--2--x-2-2--2--2--x-2-2--2--|--2--x-2-2--2--2--x-2-2--2--|--3--x-3-3--3--3--x-3-3--3--|--3--x-3-3--3--3--x-3-3--3--|----------------------------|
--3----3-3--3--3----3-3--3--|--0----0-0--0--0----0-0--0--|--0----0-0--0--0----0-0--0--|--1----1-1--1--1----1-1--1--|--0----0-0--0--0----0-0--0--|--0----0-0--0--0----0-0--0--|--0----0-0--0--0----0-0--0--|--2--x-2-2--2--2--x-2-2--2--|--2--x-2-2--2--2--x-2-2--2--|--3--x-3-3--3--3--x-3-3--3--|--3--x-3-3--3--3--x-3-3--3--|----------------------------|
--2----2-2--2--2----2-2--2--|--3----3-3--3--3----3-3--3--|--3----3-3--3--3----3-3--3--|--0----0-0--0--0----0-0--0--|--2--x-2-2--2--2--x-2-2--2--|--0----0-0--0--0----0-0--0--|--0--x-0-0--0--0--x-0-0--0--|--0----0-0--0--0----0-0--0--|----------------------------|--2--x-2-2--2--2--x-2-2--2--|----------------------------|--3--x-3-3--3--3--x-3-3--3--|
--3----3-3--3--3----3-3--3--|--3----3-3--3--3----3-3--3--|--0----0-0--0--0----0-0--0--|--0----0-0--0--0----0-0--0--|--0----0-0--0--0----0-0--0--|--0----0-0--0--0----0-0--0--|--0----0-0--0--0----0-0--0--|--0----0-0--0--0----0-0--0--|--2--x-2-2--2--2--x-2-2--2--|--2--x-2-2--2--2--x-2-2--2--|--3--x-3-3--3--3--x-3-3--3--|--3--x-3-3--3--3--x-3-3--3--|
--3----3-3--3--3----3-3--3--|--3----3-3--3--3----3-3--3--|--0----0-0--0--0----0-0--0--|--0----0-0--0--0----0-0--0--|--0----0-0--0--0----0-0--0--|--0----0-0--0--0----0-0--0--|--0----0-0--0--0----0-0--0--|--0----0-0--0--0----0-0--0--|--2--x-2-2--2--2--x-2-2--2--|--2--x-2-2--2--2--x-2-2--2--|--3--x-3-3--3--3--x-3-3--3--|--3--x-3-3--3--3--x-3-3--3--|
--2----2-2--2--2----2-2--2--|--0----0-0--0--2----2-2--2--|--3----3-3--3--3----3-3--3--|--1----1-1--1--3----3-3--3--|--2--x-2-2--2--2--x-2-2--2--|--0--x-0-0--0--2--x-2-2--2--|--0--x-0-0--0--0--x-0-0--0--|--2--x-2-2--2--0--x-0-0--0--|----------------------------|--3----3-3--3---------------|----------------------------|----------------------------|
--0----0-0--0--0----0-0--0--|--0----0-0--0--2----2-2--2--|--0----0-0--0--0----0-0--0--|--1----1-1--1--3----3-3--3--|--0----0-0--0--0----0-0--0--|--0--x-0-0--0--2--x-2-2--2--|--2----2-2--2--2----2-2--2--|--2--x-2-2--2--0--x-0-0--0--|--2--x-2-2--2--2--x-2-2--2--|--3----3-3--3---------------|--0--x-0-0--0--0--x-0-0--0--|----------------------------|
--3----3-3--3--3----3-3--3--|--3----3-3--3--3----3-3--3--|--0----0-0--0--0----0-0--0--|--0----0-0--0--0----0-0--0--|--0----0-0--0--0----0-0--0--|--0----0-0--0--0----0-0--0--|--0----0-0--0--0----0-0--0--|--0----0-0--0--0----0-0--0--|--2--x-2-2--2--2--x-2-2--2--|--2--x-2-2--2--2--x-2-2--2--|--3--x-3-3--3--3--x-3-3--3--|--3--x-3-3--3--3--x-3-3--3--|
--3----3-3--3--3----3-3--3--|--3-----------------|--0----0-0--0--0----0-0--0--|--0-----------------|--0----0-0--0--0----0-0--0--|--0-----------------|--0----0-0--0--0----0-0--0--|--0-----------------|--2--x-2-2--2--2--x-2-2--2--|--2-----------------|--3--x-3-3--3--3--x-3-3--3--|--3--------------2--|
--3----------------||--0----------------||--0----------------||--0----------------||--2----------------||--3----------------||
Tap to rate this tab
 
# A B C D E F G H I J K L M N O P Q R S T U V W X Y Z