Lewis Laurie - Millionaire tab

Queens of the Stone Age
Songs For The Deaf

1: Millionaire
----------------------------------------------------------------------

Millionaire

Tuning
1-C
2-G
3-Eb
4-Bb
5-F
6-C

Intro:|-----------------------------------------------------------------||-----------------------------------------------------------------||-----------------------------------------------------------------||-5-7-------------------------------5-7-------------------------5-||-----------------------------------------------------------------||-----0-0-0-0-0---0---0-0-0-0---0-0-----0-0-0-0-0---0---0-0-0-0---|
|---------------------------------------------------------------------||---------------------------------------------------------------------||---------------------------------------------------------------------||-7-------------------------------5-7-------------------------------5-||---------------------------7-5-7-------------------------------------||---0-0-0-0-0---0---0-0-0-0-----------0-0-0-0-0---0---0-0-0-0---0-0---|
|-------------------------------------------------------||-------------------------------------------------------||-------------------------------------------------------||-7-------------------------------5-7-------------------||-------------------------------------------------------||---0-0-0-0-0---0---0-0-0-0---0-0-----0-0-0-0---0-----0-|
|-----------------------------------------------------||-----------------------------------------------------||-----------------------------------------------------||-----------------5-7-------------------------------5-||-----------------------------------------------------||-0-0-0-0-----0-0-----0-0-0-0-0---0---0-0-0-----0-0---|
|----------------------------------------------------||----------------------------------------------------||----------------------------------------------------||-7--------------------------------5-7---------------||----------------------------------------------------||---0-0-0-0-0---0---0-0-0-0----0-0-----0-0-0-0-0---0-|
|---------------------------------------------------||---------------------------------------------------||---------------------------------------------------||---------------5-7-------------------------------5-||---------------------------------------------------||-0-0-0-0---0-0-----0-0-0-0-0---0---0-0-0-0---0-0---|
|--------------------------------------------------------------||--------------------------------------------------------------||--------------------------------------------------------------||-7--------------------------------5-7-------------------------||--------------------------------------------------------------||---0-0-0-0-0---0---0-0-0-0----0-0-----0-0-0-0-0---0---0-0-0-0-|
Bridge:|--------------------------------------------------||--------------------------------------------------||--------------------------------------------------||----------7-7-7-5--5-5-5-5-5-5-5-5-5-5-5--7-7-7-5-||----------7-7-7-5--5-5-5-5-5-5-5-5-5-5-5--7-7-7-5-||-0-0-0-0--5-5-5-3--3-3-3-3-3-3-3-3-3-3-3--5-5-5-3-|----|
|Simultanious|------------------------------------------------|------||------------------------------------------------||------------------------------------------------||------------------------------------------------||------------------------------------------------||---------------------------10-12-10-12-10-12-12-|
|----------------------------------------------------||----------------------------------------------------||----------------------------------------------------||-5-5-5-5-5-5-5-5-5-5-5-5-5-5----5-7-----------------||-5-5-5-5-5-5-5-5-5-5-5-5-5-5------------------------||-3-3-3-3-3-3-3-3-3-3-3-3-3-3--------0-0-0-0-0---0---|----|
|-Simultanious|---------------------------------------------|-----------||---------------------------------------------||------------------12----14^-12~--------(12)\-||------------12-14----14----------------------||---------------------------------------------||---------------------------------------------|
Verse:|---------------------------------------------------||---------------------------------------------------||---------------------------------------------------||---------------5-7-------------------------------5-||---------------------------------------------------||-0-0-0-0---0-0-----0-0-0-0-0---0---0-0-0-0---0-0---|
|------------------------------------------------------||------------------------------------------------------||-----------------------------------7-5----------------||-7---------------------------7-5-7--------------------||------------------------------------------------------||---0-0-0-0-0---0---0-0-0-0-0------------0-0-0-0-0---0-|
|---------------------------------------------------||---------------------------------------------------||---------------------------------------------------||---------------5-7-------------------------------5-||---------------------------------------------------||-0-0-0-0---0-0-----0-0-0-0-0---0---0-0-0-0---0-0---|
|---------------------------------------------------||---------------------------------------------------||---------------------------------------------------||-7-------------------------------5-7---------------||---------------------------------------------------||---0-0-0-0-0---0---0-0-0-0---0-0-----0-0-0-0-0---0-|
|-----------------------------------------------------||-----------------------------------------------------||-----------------------------------------------------||---------------5-7---------------------------7-7-7-5-||---------------------------------------------7-7-7-5-||-0-0-0-0---0-0-----0-0-0-0-0---0---0-0-0-0---5-5-5-3-|
Bridge:|---------------------------------||---------------------------------||---------------------------------||-5-5-5-5-5-5-5-5-5--5-5--7-7-7-5-||-5-5-5-5-5-5-5-5-5--5-5--7-7-7-5-||-3-3-3-3-3-3-3-3-3--3-3--5-5-5-3-|-------|
|---Simultanious|-------------------------------------|---||-------------------------------------||-------------------------------------||-------------------------------------||------------------12^-(12)-p10-7-(7)~||---------10-12-10--------------------|
|-------------------------------------------------||-------------------------------------------------||-------------------------------------------------||-5-5-5-5-5-5-5-5-5-5-5-5-5-5---5-7---------------||-5-5-5-5-5-5-5-5-5-5-5-5-5-5---------------------||-3-3-3-3-3-3-3-3-3-3-3-3-3-3-------0-0-0-0-0-0-0-|---|
|---Simultanious|---------------------------------------|-------------||--------------------------15\12/15\12~-||-------------12--14\12/14--------------||-------12-14---------------------------||---------------------------------------||---------------------------------------|
|-------------------------------------------------------------||-------------------------------------------------------------||-------------------------------------------------------------||-5-7---------------------------5-7---------------------------||-----5-7---------------------------5-7-----------------------||---------5-7-3/5-0-0-0-0-0-0-0---------5-7-3/5-0-0-0-0-0-0-0-|
|-----------------------------------------------||-----------------------------------------------||-----------------------------------------------||-5-7---------------------------5-7-------------||-----5-7---------------------------5-7---------||---------5-7-3/5-0-0-0-0-0-0-0---------5-7-3/5-|----|
|---Simultanious|-------------------------------------------------|--||-------------------------------------------------||--7-9------------------------------7-9p7---7--9^-||------7-9--------------------------------9-------||----------7-9-5-7--------------------------------||-0----------------0-0-0-0-0-0-0------------------|
|----------------------------------------------||----------------------------------------------||----------------7-9---------------------------||--------------------7-9-----------------------||------------------------7-9-5-7---------------||-0-0-0-0-0-0-0------------------0-0-0-0-0-0-0-|-----------|
|---Simultanious|-------------------------------------------------------|--||-------------------------------------------------------||-(9)~-------------------11/13--------------------------||-------------------9-11-------11h13-9h11---------------||-------------------------------------------------------||-------0-0-0-0-0-0-----------------------0-0-0-0-0-0-0-|
|-------------------------------------------------||-------------------------------------------------||---7-9-------------------------------------------||-------7-9-----------------------5-7-------------||-----------7-9-5/7-------------------5-7---------||-0-----------------0-0-0-0-0-0-0---------5-7-3/5-|-------|
|---Simultanious|------------------------------------------------------|--||------------------------------------------------------||------11/13---------------------------7-9-------------||-9-11-------11-13-9-11--------------------7-9---------||----------------------------------------------7-9-5-7-||------------------------0-0-0-0-0-0-0-----------------|
|---------------------------------------------------------------||---------------------------------------------------------------||---------------------------------------------------------------||----------------5-7------7-7-7-5-5-5-5-5-5-5-5-----5-5-5-5-----||--------------------7----7-7-7-5-5-5-5-5-5-5-5-----5-5-5-5-----||-0-0-0-0-0-0-0-----------5-5-5-3-3-3-3-3-3-3-3-----3-3-3-3-----|--|
|---Simu.|-----------------------------------------------------------|------||-----------------------------------------------------------||-------------------------------------14^------14--12h14-12-||-----------------5-7---------------------------------------||---------------------7-------------------------------------||-0-0-0-0-0-0-0---------------------------------------------|
|------------------------------------------||------------------------------------------||------------------------------------------||-7-7-7--5-5-5-5-5-5-5-5-5-5-7-------------||-7-7-7--5-5-5-5-5-5-5-5-5-----5-7---------||-5-5-5--3-3-3-3-3-3-3-3-3---------5-7-3-0-|---------|
|---Simultanious|--------------------------------------------------|-||--------------------------15/17-------------------||--------------------------------14/16-12/14-------||--------------------------------------------12/14-||--------------------------------------------------||--------------------------------------------------|
|--------------------------------------------------||--------------------------------------------------||--------------------------------------------------||-(Break)--------------------------------------5-7-||--------------------------------------------------||---------------0--0-0-0-0-0-0-0-0-0-0-0---0-0-----| Oh!
|-------------------------------------------||-------------------------------------------||-------------------------------------------||-----------------------------5-7-----------||-------------------------------------------||-0-0-0-0-0-0-0-0-0-0-0---0-0-----0-0-0-0-0-|
|--------------------------------------------------------||-----------------------------------------------------15^||-----------------------------------------------12-------||-----------------7-5---------------------12-14----14----||-----------7-5-7----------------------------------------||-0-0-0-0-0-----------0-0-0-0--0--0-0-0-0----------------|
|----------------------------------||-------------------------------15^||-------------------------12-------||-------------------12-14----14----||----------------------------------||-0-0-0-0--0--0-0-0----------------|
|----------------------------------||-------------------------------15^||-------------------------12-------||-------------------12-14----14----||----------------------------------||-0-0-0-0--0--0-0-0----------------|
|----------------------------------||-------------------------------15^||-------------------------12-------||-------------------12-14----14----||----------------------------------||-0-0-0-0--0--0-0-0----------------|
|---------------------------------------------------||---------------------------------------------------||---------------------------------------------------||--------------------7-7-7-5--5-5-5-5-5-5-5-5-5-5-5-||--------------------7-7-7-5--5-5-5-5-5-5-5-5-5-5-5-||0-0-0-0-0--0-0-0-0--5-5-5-3--3-3-3-3-3-3-3-3-3-3-3-|--|
|---Simultanious|----------------------------------------------------|-||----------------------------------------------------||-------------------------------------------------12-||-------------------------------------------12-14----||----------------------------------------------------||----------------------------------------------------|
|---------------------------------------------------||---------------------------------------------------||---------------------------------------------------||-5-5-5-5--7-7-7-5--5-5-5-5-5-5-5---5-7-------------||-5-5-5-5--7-7-7-5--5-5-5-5-5-5-5-------5-7---------||-3-3-3-3--5-5-5-3--3-3-3-3-3-3-3-----------5-7-3-0-|
|-----------------------------------------------------------||-------15^-------------------------15/17-------------------||-----------------------------------------14/16-12/14-------||-14-12-----------------------------------------------12/14-||-----------------------------------------------------------||-----------------------------------------------------------|
This is my first tab so yea....
Tap to rate this tab
 
# A B C D E F G H I J K L M N O P Q R S T U V W X Y Z