Lisa Loeb – Everyday tab

Everyday - Lisa Loeb - Cake and Pie

Capo up 2 frets

By C9, I mean (032030) or (032033) (sometimes one sounds better than the other) 
and the G’s are (3X0033) - G5.

|------------------------0--2--3--2-----0---||------------------0--3--------------3------||------------0--2---------------------------||---------4---------------------------------||------2------------------------------------||-------------------------------------------| 1 + 2 + 3 + 4 + 5 + 6 + 1
|-------------------------------------------||---------------0--3--1--0-----0------------||---------0--2--------------2---------------||------4------------------------------------||---2---------------------------------------||-------------------------------------------| + 2 + 3 + 4 + 5 + 6 +
|-------------------------------------------||----------------0--3--1--0-----0-----------||----------0--2--------------2--------------||-------4-----------------------------------||----2--------------------------------------||-------------------------------------------| 1 + 2 + 3 + 4 + 5 + 6 +
|-------------------------------------------||----------------0--3--1--0-----0-----------||----------0--2--------------2--------------||-------4-----------------------------------||----2--------------------------------------||-------------------------------------------| 1 + 2 + 3 + 4 + 5 + 6 +
Em G Em G Em G Em G Em G Em G Em G D Goodbye my love, I am going, I am slowing you down C9 G D I can feel you stop breathing when I come around Em G Em D I’m slowing you down Em D Em D Em Bm Em D Everyday Everyday Everyday Everyday C9 Bm Em Love turns its back and just stands in my way Em G (4x) Em G Em G Goodbye my love, you don’t get me Em G D You don’t let me inside C9 G D You once kept me close when you wanted to hide C9 G D Dsus D You pulled me in close just to push me aside Em G Em D Goodbye Em D Em D Em Bm Em D Everyday Everyday Everyday Everyday C9 Bm Em Love turns its back just to stand in my way
(just play the low strings)|--------------------------------------||--------------------------------------||--------------------------------------||---2---0---0---0---0---0---0----X-----||---2---2---2---5---7---8---10---11----||---0---2---3---5---7---8---10---11----|
Em D Em G Goodbye my love, I’m going away Em G D I know you won’t follow me far C9 G D Once I went out just to look at the stars C9 G Em I asked you to join me, but you were too tired
|-----------------------------------------||-----------3-----------------3-----------||--------2-----2-----------2-----2--------||-----0-----------0-----0-----------0-----||-----------------------------------------||--1-----------------1--------------------| I want- ed
|-----------------------------------------||-----------3-----------------3-----------||--------2-----2-----------2-----2--------||-----0-----------0-----0-----------0-----||-----------------------------------------||--2-----------------2--------------------| you
|-----------------------------------------||-----------3-----------------3-----------||--------0-----0-----------0-----0--------||-----0-----------0-----0-----------0-----||-----------------------------------------||--3-----------------3--------------------| to see them
|-----------------------------------------||-----------3-----------------3-----------||--------0-----0-----------0-----0--------||-----2-----------2-----2-----------2-----||--3-----------------3--------------------||-----------------------------------------| too
|-----------------------------------------||-----------3-----------------3-----------||--------0-----0-----------0-----0--------||-----0-----------0-----0-----------0-----||-----------------------------------------||--1-----------------1--------------------| why did I
|-----------------------------------------||-----------3-----------------3-----------||--------0-----0-----------0-----0--------||-----2-----------2-----2-----------2-----||--3-----------------3--------------------||-----------------------------------------| let my- self need
Em G Em G Em G Em G you? Em Bm Em D Em Bm Em D Em D Em D Em Bm Em D Everyday Everyday Everyday Everyday C9 Bm Em Em G (4x) Em G Em G Em D Goodbye my love, I am going, I am slowing you down C9 G D Dsus D I can feel you stop breathing... when I come around Em G Em D I’m slowing you down Em D Em D Em Bm Em D Everyday Everyday Everyday Everyday C9 Bm Em C9 Bm Em Love turns its back and just stands in my way Adapted from transcription by T?a Smith (tealou@iinet.net.au) by Jocelyn Pierpont (jociep@hotmail.com) www.angelfire.com/co3/trinity/lisa.html
Please rate this tab:
x1.0