Passeio No Rio tab with lyrics by Luiz Bonfa - Easy chords and tabs for guitar

Luiz Bonfa – Passeio No Rio tab

#----------------------------------PLEASE NOTE--------------------------------#
#This file is the author's own work and represents their interpretation of the#
#song. You may only use this file for private study, scholarship, or research.#
#-----------------------------------------------------------------------------#

                                 PASSEIO NO RIO
                              Music by Luiz Bonfб

here's a happy bossa with a ragtime kind of feel.  timing is tricky, so listen
to the midi to get the 'feel' down.  the bassline should be slightly muted 
throughout.  cheers to dave mai for showing me this tune  :)

wim

comments: wimiam at yahoo dot com


  Q=126    4/4

|-------------|-0-----3-----|--7------^14------|||-0-----3-----|-3-----3-----|--7------^11------|||-4-----4-----|-4-----4-----|--6------^12------|||-5-----5-----|-5-----5-----|--5------^11------|||-0--0--0--0--|-0--0--0--0--|------0--------0--|||-------------|-------------|------------------||
|-^9------10-7-------9-7-|-----------5---5---------|-------------------------||-^7-----------9---------|-----8-----5-7-------7-5-|-----3-2-3-2-3s5-----3---||-^7-----------7---------|-----7-----6-------------|-----2-2-2-1-----------4-||--0---0-----------------|-------------------------|-----4-4-4-3-------------||------------8----8------|--7--------0------0------|-------------------------||------------------------|-------7-0---------------|--2----2---1------0------|
|-------------------------0-|---7-7-7-7-7---------5-2-||---------3p0-3p0-2---------|-5------------4----------||-------------------4-------|-5------------5----------||-----5-5-----------5-------|-7---------0------0------||-----5-5---------0----0----|-0-----0-----------------||--0------0-----------------|-------------------------|
|-------0-----2-----0---------||-----3-------3-----3---------||-----4-------4---------------||----------0------------------||-------------------------5s2-||--3-------------3------------|
|-----2-0-0-2-2-0-----0---|-7-7-5-5-7-----5-7-----9-11-||-----3-3-3-3-3-3-----3---|-8-8-8-8-8------------------||-----1-1-1-1-1-1-----1---|-6-6-6-6-6------------------||-------------------------|----------------------------||-------2----------2----0-|-0---0------0-------0-------||--0--------0-------------|----------------------------|
|------11S12--------9---------11-9-||----------9----------11-----------||----------9-----------9-----------||--11---------11-------------------||------------------10-----10-------||----------------------------------|
|-------------7---7---------|-------------0-------3-|-4-----0------||-----10------7-9-9-----9-7-|-----5-4-5-7---7-------|-5-----7------||------9------8-8-8-----8-4-|-----4-4-4-7---7-------|-6-----6------||---------------------------|-----------6---6-------|--------------||--9------------------------|-----------------------|-0-----0------||---------9-0-7------7------|--4----4---0------0----|----0-----0---|
|-4-4-2-2-4-----4-2-----2---|---------------------|-4-4-2-2-4-----4-2-----2---||-5-5-5-5-5-----5-5-----5---|-7-7-5-5-4-5-4-----5-|-5-5-5-5-5-----5-5-----5---||-5-5-5-5-5-----5-5-----5---|-4-4-4-4-3-3-3-------|-5-5-5-5-5-----5-5-----5---||---------------------------|---------5-5-5-------|---------------------------||-0----------0-------0------|---------------------|-0----------0-------0------||-----0-------------------0-|-4---4---3------3----|-----0-------------------0-|
3/4|---------------------|--9-------------|---7-12-10-8-7-||-7-7-5-5-4-5-4-----5-|-10------4------|---7-12-10-8-7-||-4-4-4-4-3-3-3-------|--9------2------|---6-11--9-7-6-||---------5-5-5-------|---------3------|---6-11--9-7-6-||---------------------|--9-------------|---7-12-10-8-7-||-4---4---3------3----|-----9\--1--1/--|-0-------------|
4/4|---7-12-10-8-7-|-4--------4-5-6-|-7-------------||---7-12-10-8-7-|-4--------4-5-6-|-7-----------0-||---6-11--9-7-6-|-3--------3-4-5-|-6-------------||---6-11--9-7-6-|----------------|---------------||---7-12-10-8-7-|-4-----4--4-5-6-|-7-----7-------||-0-------------|----4-----------|----7-----7\---|
|------------------------------0--------||-0--------2---------3---------3--------||-4--------4---------4---------4--------||-5--------5---------5------------------||-0-0-0-----------0-----0-0-----------0-||-------0-----0-0-----------0-----0-0---| p p i p p i p
|--2---------3---------5---------7------/9-|-------------10-7-------9-7-||--2---------2---------2-------------------|------7-----------9---------||--3---------3---------3-------------------|------7-----------7---------||------------------------------------------|--9-------9-----------------||-----0-0-0-----0-0-0-----0-0-0-----0-0----|----------------8----8------||------------------------------------------|----------------------------|
|-----------5---5---------|-------------------------|-----------------------0--||-----8-----5-7-------7-5-|-----3-2-3-2-3s5-----3-0-|-------3p0-3p0-2----------||-----7-----6-------------|-----2-2-2-1-------------|-----0-----------4--------||-------------------------|-----4-4-4-3-------------|-----0-----------5--------||--7--------0------0------|-------------------------|-----2---------0----0-----||-------7-0---------------|--2----2---1------0------|--0----0------------------|
6/4|---7-7-7-7--------7----5----2----0-----------------||-5--------------4----4----4----3------3-----0------||-5--------------5----5----5----4----4----4---------||-5----------0----------0------------0----0---------||-0-----0---------------------------------------5s2-||---------------------------------3-----------------|
4/4|-----2-0-0-2-2-0-----0-7-|-----5-7-5-7-----5-7-----9-11-||-----3-3-3-3-3-3-----3-5-|-----5-5-5-5-----5------------||-----1-1-1-1-1-1-----1-6-|-----6-6-6-6-----6------------||-------------------------|--5-----------5---------------||-----------2-------------|-------0--------------0-------||--0----0----------0------|------------------------------|
|------11S12--------9---------11-9-||----------9----------11-----------||----------9-----------9-----------||--11---------11-------------------||------------------10-----10-------||----------------------------------|
|-------------7---7---------|-------------0-------3-|-4-----0------||-----10------7-9-9-----9-7-|-----5-4-5-7---7-------|-5-----7------||------9------8-8-8-----8-4-|-----4-4-4-7---7-------|-6-----6------||---------------------------|-----------6---6-------|--------------||--9------------------------|-----------------------|-0-----0------||---------9-0-7------7------|--4----4---0------0----|----0-----0---|
|-4-4-2-2-4-----4-2-----2---|---------------------|-4-4-2-2-4-----4-2-----2---||-5-5-5-5-5-----5-5-----5---|-7-7-5-5-4-5-4-----5-|-5-5-5-5-5-----5-5-----5---||-5-5-5-5-5-----5-5-----5---|-4-4-4-4-3-3-3-------|-5-5-5-5-5-----5-5-----5---||---------------------------|---------5-5-5-------|---------------------------||-0----------0-------0------|---------------------|-0----------0-------0------||-----0-------------------0-|-4---4---3------3----|-----0-------------------0-|
3/4|---------------------|--9-------------|---7-12-10-8-7-|---7-12-10-8-7-||-7-7-5-5-4-5-4-----5-|-10------4------|---7-12-10-8-7-|---7-12-10-8-7-||-4-4-4-4-3-3-3-------|--9------2------|---6-11--9-7-6-|---6-11--9-7-6-||---------5-5-5-------|---------3------|---6-11--9-7-6-|---6-11--9-7-6-||---------------------|--9-------------|---7-12-10-8-7-|---7-12-10-8-7-||-4---4---3------3----|-----9\--1--1/--|-0-------------|-0-------------|
4/4|-4--------4-5-6-|-7-------------|------------------------------0--------||-4--------4-5-6-|-7-----------0-|-0--------2---------3---------3--------||-3--------3-4-5-|-6-------------|-4--------4---------4---------4--------||----------------|---------------|-5--------5---------5------------------||-4-----4--4-5-6-|-7-----7-------|-0-0-0-----------0-----0-0-----------0-||----4-----------|----7-----7\---|-------0-----0-0-----------0-----0-0---| p p i p p i p
|--2---------3---------5---------7------|||--2---------2---------2----------------|||--3---------3---------3----------------|||---------------------------------------|||-----0-0-0-----0-0-0-----0-0-0-----0-0-|||---------------------------------------||
|---------------------|----------------|---2-------1------||-[2]---[3]-[0]---[2]-|-[0]----5-------|------------------||-^2--------^1--------|--0-----6-------|---2-------1------||-^0--------^0--------|--0-----7-4-7-4-|-2-0---0-----2-0--||---------------------|----------------|-----4---4--------||-^2--------^1--------|--0-------------|------------------|
2/4|-----------------------------------||-------0-----3----------3----------||-----0---0------4-----------4------||---0-------0--------5-----------5--||-2-----------0---------------------||-----------------------------------|
|-0----------2-----------3----------7----------7----------||----1-----------1-----------1---------4-----------4------||--------0-----------0-----------0---------5-----------5--||-----------------------------------0---------------------||-0-------------------------------------------------------||---------------------------------------------------------|
3/8|--7---------------------5----------||------4---------4-----------4------||----------5---------5-----------5--||-------------0---------------------||-----------------------------------||-----------------------------------|
4/4|-2-------------0-------------19-------||--------0------------19---------------||------------0------------19-----------||----4-------------0-------------------||----------------------------------0-1-||-3------------------------------4-----|
3/4 4/4|------------------|----4--5-6-7-------------||----0-------------|----3---------5----------||----1-------------|------------------6------||----4--2---4---2--|-4--2-----------------5--||-2----------------|-----------0-------------||------------------|-0-----------------------|
|--5------7-----5--^7-5-7-9-11-|||------------5-----^5----------|||------6-----------^6----------|||------------------^5----------|||------------------^0----------|||------------------------------||
|------11s12--------9---------11-9-|-------------7---7---------||----------9----------11-----------|-----10------7-9-9-----9-7-||----------9-----------9-----------|------9------8-8-8-----8-4-||--11---------11-------------------|---------------------------||------------------10-----10-------|--9------------------------||----------------------------------|---------9-0-7------7------|
|-------------0-------4-|-4-----0----4-|-------2-------4-------2----------||-----5-4-5-7---7-------|-5-----7----5-|-------5-------5-------5-------7--||-----4-4-4-7---7-------|-6-----6----5-|-------5-------5-------5-------4--||-----------6---6-------|--------------|--4-------4-------4-------4-------||-----------------------|-0-----0------|----------------------------------||--4----4---0------0----|----0-----0---|----------------------------------|
|-------------------------------4-|-------2-------4-------2---------||-------5-------4-------5-------5-|-------5-------5-------5-------7-||-------4-------3-------3-------5-|-------5-------5-------5-------4-||---------------5-------5---------|--4-------4-------4-------4------||---------------------------------|---------------------------------||--4-------4-------3-------3------|---------------------------------|
|-------------------------------|--9-------------|---7-12-10------8-----7-||-------5-------4-------5-------|-10------4------|---7-12-10------8-----7-||-------4-------3-------3-------|--9------2------|---6-11--9------7-----6-||---------------5-------5-------|---------3------|---6-11--9------7-----6-||-------------------------------|--9-------------|---7-12-10------8-----7-||--4-------4-------3-------3----|-----9\--1--1/--|-0----------------------|
|---7-12-10------8-----7-||---7-12-10------8-----7-||---6-11--9------7-----6-||---6-11--9------7-----6-||---7-12-10------8-----7-||-0----------------------|
|-2-2-2-2-2-2-2-------------------|-----------!2-2-----|||-2-2-2-2-2-2-2-2-2-2-2-2---------|-----------!2-2-----|||-1-1-1-1-1-1-1-1-1-1-1-1-1-1-1-1-|-1-1-------!1-1-----|||---------------1-1-1-1-1-1-1-1-1-|-1-1-1-----!1-1-----|||-2-----------------------2-2-2-2-|-2-2-2-----!2-2-----|||---------------------------------|-----0-----!0-0-----||
Please rate this tab:
x1.0