Lustra - Scotty Doesnt Know tab

song:scotty doesent know
band:lustra

This is my first tab so please rate.

-------------------------------------------------|-------------------------------------------------|-------------------------------------------------|----55-44-55----55-44-55----55-44-55-77-55-44-55-| 3x-------------00----------33----------------------|-33----------------------------------------------|
-------------------------------------------------|-------------------------------------------------|-------------------5555555555555555--------------|-55555555-77777777-5555555555555555--------------|-55555555-77777777-3333333333333333--------------|-33333333-77777777-------------------------------|
-------------------------------------------------|-------------------------------------------------|-------------------55555555------5555------------|-55555555-77777777-55555555-7777-5555------------|-55555555-77777777-33333333-7777-3333------------|-33333333-55555555----------5555-----------------|
-------------------------------------------------|-------------------------------------------------|-------------------55555555-5-5-7-5--------------|-55555555-77777777-55555555-5-5-7-5--------------|-55555555-77777777-33333333-3-3-5-3--------------|-33333333-55555555-------------------------------| ******** ******** ********
-------------------------------------------------|-------------------------------------------------|-------------------55555555-5-7-7/11-------------|-55555555-77777777-55555555-5-7-7/11-------------|-55555555-77777777-33333333-3-5-5/9--------------|-33333333-55555555-------------------------------|
******** ******** ********-------------------------------------------------|-------------------------------------------------|-------------------5555555555555555--------------|-55555555-77777777-5555555555555555--------------|-55555555-77777777-3333333333333333--------------|-33333333-55555555-------------------------------|
-------------------------------------------------|-------------------------------------------------|-------------------55555555------5555------------|-55555555-77777777-55555555-7777-5555------------|-55555555-77777777-33333333-7777-3333------------|-33333333-55555555----------5555-----------------|
-------------------------------------------------|-------------------------------------------------|-------------------55555555-5-5-7-5--------------|-55555555-77777777-55555555-5-5-7-5--------------|-55555555-77777777-33333333-3-3-5-3--------------|-33333333-55555555-------------------------------|
******** ******** ********-------------------------------------------------|-------------------------------------------------|-------------------55555555-5-7-7/11-------------| after you play this play-55555555-77777777-55555555-5-7-7/11-------------| the one above this again,-55555555-77777777-33333333-3-5-5/9--------------| then play this one again.-33333333-55555555-------------------------------|
******** ******** ********-------------------------------------------------|-------------------------------------------------|-------------------5555555555555555--------------|-55555555-77777777-5555555555555555--------------|-55555555-77777777-3333333333333333--------------|-33333333-55555555-------------------------------|
-------------------------------------------------|-------------------------------------------------|-------------------55555555------5555------------|-55555555-77777777-55555555-7777-5555------------|-55555555-77777777-33333333-7777-3333------------|-33333333-55555555----------3333-----------------|
-------------------------------------------------|-------------------------------------------------|-------------------5555555555555555--------------|-55555555-77777777-5555555555555555--------------|-55555555-77777777-3333333333333333--------------|-33333333-55555555-------------------------------|
-------------------------------------------------|-------------------------------------------------|-------------------55555555------5555------------|-55555555-77777777-55555555-7777-5555------------|-55555555-77777777-33333333-7777-3333------------|-33333333-55555555----------5555-----------------|
-------------------------------------------------|-------------------------------------------------|-------------------------------------------------|----55-44-55----55-44-55----55-44-55-77-55-44-55-|-------------00----------33----------------------|-33----------------------------------------------|
-------------------------------------------------|-------------------------------------------------|-------------------5555555555555555--------------|-55555555-77777777-5555555555555555--------------|-55555555-77777777-3333333333333333--------------|-33333333-55555555-------------------------------|
-------------------------------------------------|-------------------------------------------------|-------------------55555555------5555------------|-55555555-77777777-55555555-7777-5555------------|-55555555-77777777-33333333-7777-3333------------|-33333333-55555555----------5555-----------------|
-------------------------------------------------|-------------------------------------------------|-------------------5555555555555555--------------|-55555555-77777777-5555555555555555--------------| 3x-55555555-77777777-3333333333333333--------------|-33333333-55555555-------------------------------|
-------------------------------------------------|-------------------------------------------------|-------------------55555555------5555--5---------|-55555555-77777777-55555555-7777-5555--5---------|-55555555-77777777-33333333-7777-3333--3---------|-33333333-55555555----------5555-----------------|
I hope you enjoy it!
Tap to rate this tab
 
# A B C D E F G H I J K L M N O P Q R S T U V W X Y Z