Painless tab with lyrics by Mae - Easy chords and tabs for guitar

Mae – Painless tab

----------------------------------------------------------------------------
			     Painless - Mae
----------------------------------------------------------------------------

 

Gtr I (Db Ab Db Gb Bb Eb)
Gtr II (Db Ab Db Gb Bb Eb) 
Gtr III (Db Ab Db Gb Bb Eb)
Gtr IV (Db Ab Db Gb Bb Eb)


 Intro:


Guitar 1:|-------------------------------------------------||-------5-(5)---------(5)-------5-(5)---------(5)-||-------------4-6-(6)--6--------------4-6-(6)--6--||-0-(0)-------------------0-(0)-------------------||-------------------------------------------------||-------------------------------------------------|
|-------------------------------------------------||-------5-(5)---------(5)-------5-(5)---------(5)-||-------------4-6-(6)--6--------------4-6-(6)--6--||-0-(0)-------------------0-(0)-------------------||-------------------------------------------------||-------------------------------------------------|
PM----------------------------------------------||-------------------------------------------------||-------------------------------------------------||-------6-(6)---4-(4)--4--------6-(6)---4-(4)--4--||-------------7-----------------------7-----------||-4-(4)-------------------4-(4)-------------------||-------------------------------------------------|
PM---------------------------------------------||--------------------------------------------------||--------------------------------------------------||-------6-(6)---4-(4)--4--------6-(6)---4-(4)--4---||-------------7-----------------------7------------||-4-(4)-------------------4-(4)--------------------||--------------------------------------------------|
PM------------------------------------------||---------------------------------------------||-------3-(3)-----------------3-(3)-----------||---------------5-(5)-----------------5-(5)---||-------------7-------7-------------7-------7-||-3-(3)-----------------3-(3)-----------------||---------------------------------------------|
PM-------------------------------------------||----------------------------------------------||-------3-(3)-----------------3-(3)------------||---------------5-(5)-----------------5-(5)----||-------------7-------7-------------7-------7--||-3-(3)-----------------3-(3)------------------||----------------------------------------------|
|-------------------------------------------------||-------0-(0)-------0-(0)-------0-(0)-------0-(0)-||-------------2-(2)-------------------2-(2)-------||-------------------------------------------------||-2-(2)-------------------2-(2)-------------------||-------------------------------------------------|
|--------------------------------------------------------||-------0-(0)-0-(0)-(0)-(0)-0-(0)-(0)-(0)-0-(0)-(0)-(0)--||----------2---------2---------2----------2--------------||-------------4----------4---------4---------4-------4---||-2-(2)--------------------------------------------------||--------------------------------------------------------|
Verse:
Guitar 2: PM----------------------------------------------:|---------------------------------------------------||-------5-(5)----------(5)-------5-(5)----------(5)-||-------------4--6-(6)--6--------------4--6-(6)--6--||-0-(0)--------------------0-(0)--------------------||---------------------------------------------------||---------------------------------------------------|
Guitar 3:|-0-----------0---------0--0-----------0---------0--||---------------------------------------------------||-9-----------9---------9--9-----------9---------9--||-7-----------7---------7--7-----------7---------7--||-5-----------5---------5--5-----------5---------5--||-0-----------0---------0--0-----------0---------0--|
PM-----------------------------------------------||----------------------------------------------------||-------5-(5)----------(5)-------5-(5)----------(5)--||-------------4--6-(6)--6--------------4--6-(6)--6---||-0-(0)--------------------0-(0)---------------------||----------------------------------------------------||----------------------------------------------------|
|-0-----------0---------0--0-----------0---------0---||----------------------------------------------------||-9-----------9---------9--9-----------9---------9---||-7-----------7---------7--7-----------7---------7---||-5-----------5---------5--5-----------5---------5---||-0-----------0---------0--0-----------0---------0---|
PM----------------------------------------------||---------------------------------------------------||---------------------------------------------------||-------6-(6)----4-(4)--4--------6-(6)----4-(4)--4--||-------------7------------------------7------------||-4-(4)--------------------4-(4)--------------------||---------------------------------------------------|
|-0-----------0---------0--0-----------0---------0--||-0-----------0---------0--0-----------0---------0--||-6-----------6---------6--6-----------6---------6--||-7-----------7---------7--7-----------7---------7--||-4-----------4---------4--4-----------4---------4--||-x-----------x---------x--x-----------x---------x--|
PM-----------------------------------------------||----------------------------------------------------||----------------------------------------------------||-------6-(6)----4-(4)--4--------6-(6)----4-(4)--4---||-------------7------------------------7-------------||-4-(4)--------------------4-(4)---------------------||----------------------------------------------------|
|-0-----------0---------0--0-----------0---------0---||-0-----------0---------0--0-----------0---------0---||-6-----------6---------6--6-----------6---------6---||-7-----------7---------7--7-----------7---------7---||-4-----------4---------4--4-----------4---------4---||-x-----------x---------x--x-----------x---------x---|
PM------------------------------------------||-----------------------------------------------||-------3-(3)-0--1-(1)-1-------3-(3)-0--1-(1)-1-||-----------------------------------------------||-----------------------------------------------||-3-(3)------------------3-(3)------------------||-----------------------------------------------|
|-----------------------------------------------||-3-----------3--------3-3-----------3--------3-||-5-----------5--------5-5-----------5--------5-||-7-----------7--------7-7-----------7--------7-||-3-----------3--------3-3-----------3--------3-||-x-----------x--------x-x-----------x--------x-|
PM--------------------------------------------|
|------------------------------------------------||-------3-(3)-0--1-(1)-1-------3-(3)-0--1-(1)-1--||------------------------------------------------||------------------------------------------------||-3-(3)------------------3-(3)-------------------||------------------------------------------------|
|------------------------------------------------||-3-----------3--------3-3-----------3--------3--||-5-----------5--------5-5-----------5--------5--||-7-----------7--------7-7-----------7--------7--||-3-----------3--------3-3-----------3--------3--||-x-----------x--------x-x-----------x--------x--|
PM----------------------------------------------||---------------------------------------------------||-------0-(0)--------0-(0)-------0-(0)--------0-(0)-||-------------2--(2)-------------------2--(2)-------||---------------------------------------------------||-2-(2)--------------------2-(2)--------------------||---------------------------------------------------|
|-2-----------2---------2--2-----------2---------2--||-2-----------2---------2--2-----------2---------2--||-2-----------2---------2--2-----------2---------2--||-4-----------4---------4--4-----------4---------4--||-2-----------2---------2--2-----------2---------2--||-x-----------x---------x--x-----------x---------x--|
|---------------------------------------------------------||---------------------------------------------------------||----------2----------2---------2----------2--------------||-------------4-----------4---------4---------4-------4---||-2-(2)---------------------------------------------------||---------------------------------------------------------|
|-2-----------2-----------2--2-------------2------2-------||-2-----------2-----------2--2-------------2------2-------||-2-----------2-----------2--2-------------2------2-------||-4-----------4-----------4--4-------------4------4-------||-2-----------2-----------2--2-------------2------2-------||-x-----------x-----------x--x-------------x------x-------|
Guitar 4:|---------------------17----------16----------17----------19--||-----------------19------19----------17----------17----------||---------14--18--------------18----------18----------18------||--4--16------------------------------------------------------||--4----------------------------------------------------------||--4----------------------------------------------------------|
Guitar 2 & 3:|-----------------------------------------------------------||-----------------------------------------------------------||-----------------------------------------------------------||-4---------------------------------------------------------||-4---------------------------------------------------------||-4---------------------------------------------------------|
|---------------------17----------16----------17----------19--||-----------------19------19----------17----------17----------||---------14--18--------------18----------18----------18------||--4--16------------------------------------------------------||--4----------------------------------------------------------||--4----------------------------------------------------------|
|-------------------------------------------------------------||-------------------------------------------------------------||-------------------------------------------------------------||-(4)---------------------------------------------------------||-(4)---------------------------------------------------------||-(4)---------------------------------------------------------|
|---------------------17----------16----------17----------19--||-----------------19------19----------17----------17----------||---------14--18--------------18----------18----------18------||--4--16------------------------------------------------------||--4----------------------------------------------------------||--4----------------------------------------------------------|
|-------------------------------------------------------------||-------------------------------------------------------------||-------------------------------------------------------------||-(4)---------------------------------------------------------||-(4)---------------------------------------------------------||-(4)---------------------------------------------------------|
|---------------------17----------16----------17----------19--||-----------------19------19----------17----------17----------||---------14--18--------------18----------18----------18------||--4--16------------------------------------------------------||--4----------------------------------------------------------||--4----------------------------------------------------------|
|-------------------------------------------------------------||-------------------------------------------------------------||-------------------------------------------------------------||-(4)---------------------------------------------------------||-(4)---------------------------------------------------------||-(4)---------------------------------------------------------|
|-------------------------------------------------------------||-------------------------------------------------------------||----------6---9-------6---9-------6---9-------6---7---6------||--0---7-----------7-----------7-----------7--(7)-(7)-(7)--7--||--0--(0)-(0)-(0)-(0)-(0)-(0)-(0)-(0)-(0)-(0)-(0)-(0)-(0)-(0)-||--0--(0)-(0)-(0)-(0)-(0)-(0)-(0)-(0)-(0)-(0)-(0)-(0)-(0)-(0)-|
|-(0)---------------------------------------------------------||-(3)---------------------------------------------------------||-(2)---------------------------------------------------------||-(0)---------------------------------------------------------||-(0)---------------------------------------------------------||-(0)---------------------------------------------------------|
|-------------------------------------------------------------||-------------------------------------------------------------||----------6---9-------6---9-------6---9-------6---7---6------||--0---7-----------7-----------7-----------7--(7)-(7)-(7)--7--||--0--(0)-(0)-(0)-(0)-(0)-(0)-(0)-(0)-(0)-(0)-(0)-(0)-(0)-(0)-||--0--(0)-(0)-(0)-(0)-(0)-(0)-(0)-(0)-(0)-(0)-(0)-(0)-(0)-(0)-|
|-(0)---------------------------------------------------------||-(3)---------------------------------------------------------||-(2)---------------------------------------------------------||-(0)---------------------------------------------------------||-(0)---------------------------------------------------------||-(0)---------------------------------------------------------|
Verse:|---------------------17----------16----------17----------19--||-----------------19------19----------17----------17----------||---------14--18--------------18----------18----------18------||--4--16------------------------------------------------------||--4----------------------------------------------------------||--4----------------------------------------------------------|
|--------------------------------------------------------------||o-------------------------------------------------------------||--------------------------------------------------------------||--(4)---------------------------------------------------------||o-(4)---------------------------------------------------------||--(4)---------------------------------------------------------|
|---------------------17----------16----------17----------19--||-----------------19------19----------17----------17----------||---------14--18--------------18----------18----------18------||--4--16------------------------------------------------------||--4----------------------------------------------------------||--4----------------------------------------------------------|
|-------------------------------------------------------------||-------------------------------------------------------------||-------------------------------------------------------------||-(4)---------------------------------------------------------||-(4)---------------------------------------------------------||-(4)---------------------------------------------------------|
|---------------------17----------16----------17----------19--||-----------------19------19----------17----------17----------||---------14--18--------------18----------18----------18------||--4--16------------------------------------------------------||--4----------------------------------------------------------||--4----------------------------------------------------------||--4----------------------------------------------------------|
|-------------------------------------------------------------||-------------------------------------------------------------||-------------------------------------------------------------||-(4)---------------------------------------------------------||-(4)---------------------------------------------------------||-(4)---------------------------------------------------------|
|---------------------17----------16----------17----------19--||-----------------19------19----------17----------17----------||---------14--18--------------18----------18----------18------||--4--16------------------------------------------------------||--4----------------------------------------------------------||--4----------------------------------------------------------|
|-------------------------------------------------------------||-------------------------------------------------------------||-------------------------------------------------------------||-(4)---------------------------------------------------------||-(4)---------------------------------------------------------||-(4)---------------------------------------------------------|
|-------------------------------------------------------------||-------------------------------------------------------------||----------6---9-------6---9-------6---9-------6---7---6------||--0---7-----------7-----------7-----------7--(7)-(7)-(7)--7--||--0--(0)-(0)-(0)-(0)-(0)-(0)-(0)-(0)-(0)-(0)-(0)-(0)-(0)-(0)-||--0--(0)-(0)-(0)-(0)-(0)-(0)-(0)-(0)-(0)-(0)-(0)-(0)-(0)-(0)-|
|-(0)---------------------------------------------------------||-(3)---------------------------------------------------------||-(2)---------------------------------------------------------||-(0)---------------------------------------------------------||-(0)---------------------------------------------------------||-(0)---------------------------------------------------------|
|--------------------------------------------------------------||-------------------------------------------------------------o||----------6---9-------6---9-------6---9-------6---7---6-------||--0---7-----------7-----------7-----------7--(7)-(7)-(7)--7---| x3|--0--(0)-(0)-(0)-(0)-(0)-(0)-(0)-(0)-(0)-(0)-(0)-(0)-(0)-(0)-o||--0--(0)-(0)-(0)-(0)-(0)-(0)-(0)-(0)-(0)-(0)-(0)-(0)-(0)-(0)--|
|-(0)----------------------------------------------------------||-(3)---------------------------------------------------------o||-(2)----------------------------------------------------------||-(0)----------------------------------------------------------|x3|-(0)---------------------------------------------------------o||-(0)----------------------------------------------------------|
Pre-Chorus: Guitar 2:
PM| PM----||---------------------------|-------------------||---------------------------|-------------------||-----7-----------7---7-6---|--9--7---9-7---9-7-||-0-0-----0-0-0-0---------7-|-------7-----7-----||---------------------------|-------------------||---------------------------|-------------------|
Guitar 3:|-0-------------------------|-(0)---------------||-3-------------------------|-(3)---------------||-2-------------------------|-(2)---------------||-0-------------------------|-(0)---------------||-0-------------------------|-(0)---------------||-0-------------------------|-(0)---------------|
PM PM PM|--------------------|-------------12-12-10-9-||-----------------10-|-10----12-12------------||---9-9---11-11------|------------------------||-------9-------9----|-----9------------------||--------------------|------------------------||--------------------|------------------------|
|--------------------|------------------------||--------------------|------------------------||--------------------|------------------------||-2------------------|-(2)--------------------||-2------------------|-(2)--------------------||-2------------------|-(2)--------------------|
Chorus:|-------------|-------------------------------||-------------|-------------------------------||-------9-----|-7--------------9-----------9--||-4--0-----7--|-7---------9----9-----------9--||-4--0--7--7--|-5---------9----7-----------7--||-4--0-----7--|-----------9-------------------|
|-------------|-------------------------------||-------------|-------------------------------||-------9-----|-6b7r(6)-4-4--/13b14r(13)-9-9--||-4--0-----7--|-------------------------------||-4--0--7--7--|-4b5r(4)-2-2--/11b12r(11)-7-7--||-4--0-----7--|-------------------------------|
|-------------|--------------------------------||-------------|--------------------------------||-------9-----|-7--------------9-----------9---||-4--0-----7--|-7---------9----9-----------9---||-4--0--7--7--|-5---------9----7-----------7---||-4--0-----7--|-----------9--------------------|
|-------------|--------------------------------||-------------|--------------------------------||-------9-----|-6b7r(6)-4-4--/13b14r(13)-9-9---||-4--0-----7--|--------------------------------||-4--0--7--7--|-4b5r(4)-2-2--/11b12r(11)-7-7---||-4--0-----7--|--------------------------------|
|----------------|------------------|----------------||o---------------|-----------------o|----------------||--5--5--5-5-5-6-|-(6)--6--6-6-6-5--|----------------||--7--7--7-7-7-7-|-(7)--7--7-7-7-7--|-4--0--2----(2)-||o-3--3--3-3-3-4-|-(4)--4--4-4-4-3-o|-4--0--2----(2)-||----------------|------------------|-4--0--2----(2)-|
|----------------|------------------|----------------||o---------------|-----------------o|----------------||--5--5--5-5-5-6-|-(6)--6--6-6-6-5--|----------------||--7--7--7-7-7-7-|-(7)--7--7-7-7-7--|-4--0--9----(9)-||o-3--3--3-3-3-4-|-(4)--4--4-4-4-3-o|-4--0--7----(7)-||----------------|------------------|-4--0--9----(9)-|
Interlude: PM----------------------------------------------||---------------------------------------------------||-------5-(5)----------(5)-------5-(5)----------(5)-||-------------4--6-(6)--6--------------4--6-(6)--6--||-0-(0)--------------------0-(0)--------------------||---------------------------------------------------||---------------------------------------------------|
|-0-----------0---------0--0-----------0---------0--||---------------------------------------------------||-9-----------9---------9--9-----------9---------9--||-7-----------7---------7--7-----------7---------7--||-5-----------5---------5--5-----------5---------5--||-0-----------0---------0--0-----------0---------0--|
PM-----------------------------------------------||----------------------------------------------------||-------5-(5)----------(5)-------5-(5)----------(5)--||-------------4--6-(6)--6--------------4--6-(6)--6---||-0-(0)--------------------0-(0)---------------------||----------------------------------------------------||----------------------------------------------------|
|-0-----------0---------0--0-----------0---------0---||----------------------------------------------------||-9-----------9---------9--9-----------9---------9---||-7-----------7---------7--7-----------7---------7---||-5-----------5---------5--5-----------5---------5---||-0-----------0---------0--0-----------0---------0---|
PM----------------------------------------------||---------------------------------------------------||---------------------------------------------------||-------6-(6)----4-(4)--4--------6-(6)----4-(4)--4--||-------------7------------------------7------------||-4-(4)--------------------4-(4)--------------------||---------------------------------------------------|
|-0-----------0---------0--0-----------0---------0--||-0-----------0---------0--0-----------0---------0--||-6-----------6---------6--6-----------6---------6--||-7-----------7---------7--7-----------7---------7--||-4-----------4---------4--4-----------4---------4--||-x-----------x---------x--x-----------x---------x--|
PM----------------------------------------------||----------------------------------------------------||-----------------------------------------------(----||-------6-(6)----4-(4)--4--------6-(6)----4-(4)--4---||-------------7------------------------7-------------||-4-(4)--------------------4-(4)---------------------||----------------------------------------------------|
|-0-----------0---------0--0-----------0---------0---||-0-----------0---------0--0-----------0---------0---||-6-----------6---------6--6-----------6---------6---||-7-----------7---------7--7-----------7---------7---||-4-----------4---------4--4-----------4---------4---||-x-----------x---------x--x-----------x---------x---|
PM-------------------------------------------||-----------------------------------------------||-------3-(3)------------------3-(3)------------||----------------5-(5)------------------5-(5)---||-------------7--------7-------------7--------7-||-3-(3)------------------3-(3)------------------||-----------------------------------------------|
|-----------------------------------------------||-3-----------3--------3-3-----------3--------3-||-5-----------5--------5-5-----------5--------5-||-7-----------7--------7-7-----------7--------7-||-3-----------3--------3-3-----------3--------3-||-x-----------x--------x-x-----------x--------x-|
PM--------------------------------------------||------------------------------------------------||-------3-(3)------------------3-(3)-------------||----------------5-(5)------------------5-(5)----||-------------7--------7-------------7--------7--||-3-(3)------------------3-(3)-------------------||------------------------------------------------|
|------------------------------------------------||-3-----------3--------3-3-----------3--------3--||-5-----------5--------5-5-----------5--------5--||-7-----------7--------7-7-----------7--------7--||-3-----------3--------3-3-----------3--------3--||-x-----------x--------x-x-----------x--------x--|
PM---------------------------------------------||---------------------------------------------------||-------0-(0)--------0-(0)-------0-(0)--------0-(0)-||-------------2--(2)-------------------2--(2)-------||---------------------------------------------------||-2-(2)--------------------2-(2)--------------------||---------------------------------------------------|
|-2-----------2---------2--2-----------2---------2--||-2-----------2---------2--2-----------2---------2--||-2-----------2---------2--2-----------2---------2--||-4-----------4---------4--4-----------4---------4--||-2-----------2---------2--2-----------2---------2--||-x-----------x---------x--x-----------x---------x--|
|---------------------------------------------------------||-------0-(0)-0--(0)-(0)-(0)-0-(0)-(0)-(0)-0-(0)-(0)-(0)--||----------2----------2---------2----------2--------------||-------------4-----------4---------4---------4-------4---||-2-(2)---------------------------------------------------||---------------------------------------------------------|
|-2-----------2-----------2--2-------------2------2-------||-2-----------2-----------2--2-------------2------2-------||-2-----------2-----------2--2-------------2------2-------||-4-----------4-----------4--4-------------4------4-------||-2-----------2-----------2--2-------------2------2-------||-x-----------x-----------x--x-------------x------x-------|
Verse F#5 Guitar 4:|----------------------17----------16----------17----------19--||o-----------------19------19----------17----------17----------||----------14--18--------------18----------18----------18------||---4--16------------------------------------------------------||o--4----------------------------------------------------------||---4----------------------------------------------------------|
Guitar 2 & 3:|--------------------------------------------------------------||o-------------------------------------------------------------||--------------------------------------------------------------||--(4)---------------------------------------------------------||o-(4)---------------------------------------------------------||--(4)---------------------------------------------------------|
S S S S S S S S S S S S S S E|---------------------17----------16----------17----------19--||-----------------19------19----------17----------17----------||---------14--18--------------18----------18----------18------||--4--16------------------------------------------------------||--4----------------------------------------------------------||--4----------------------------------------------------------|
|-------------------------------------------------------------||-------------------------------------------------------------||-------------------------------------------------------------||-(4)---------------------------------------------------------||-(4)---------------------------------------------------------||-(4)---------------------------------------------------------|
|---------------------17----------16----------17----------19--||-----------------19------19----------17----------17----------||---------14--18--------------18----------18----------18------||--4--16------------------------------------------------------||--4----------------------------------------------------------||--4----------------------------------------------------------|
|-------------------------------------------------------------||-------------------------------------------------------------||-------------------------------------------------------------||-(4)---------------------------------------------------------||-(4)---------------------------------------------------------||-(4)---------------------------------------------------------|
|---------------------17----------16----------17----------19--||-----------------19------19----------17----------17----------||---------14--18--------------18----------18----------18------||--4--16------------------------------------------------------||--4----------------------------------------------------------||--4----------------------------------------------------------|
|-------------------------------------------------------------||-------------------------------------------------------------||-------------------------------------------------------------||-(4)---------------------------------------------------------||-(4)---------------------------------------------------------||-(4)---------------------------------------------------------|
|-------------------------------------------------------------||-------------------------------------------------------------||----------6---9-------6---9-------6---9-------6---7---6------||--0---7-----------7-----------7-----------7--(7)-(7)-(7)--7--||--0--(0)-(0)-(0)-(0)-(0)-(0)-(0)-(0)-(0)-(0)-(0)-(0)-(0)-(0)-||--0--(0)-(0)-(0)-(0)-(0)-(0)-(0)-(0)-(0)-(0)-(0)-(0)-(0)-(0)-|
|-------------------------------------------------------------||-------------------------------------------------------------||-------------------------------------------------------------||-(0)---------------------------------------------------------||-(0)---------------------------------------------------------||-(0)---------------------------------------------------------|
|--------------------------------------------------------------||-------------------------------------------------------------o||----------6---9-------6---9-------6---9-------6---7---6-------| x3|--0---7-----------7-----------7-----------7--(7)-(7)-(7)--7---||--0--(0)-(0)-(0)-(0)-(0)-(0)-(0)-(0)-(0)-(0)-(0)-(0)-(0)-(0)-o||--0--(0)-(0)-(0)-(0)-(0)-(0)-(0)-(0)-(0)-(0)-(0)-(0)-(0)-(0)--|
|--------------------------------------------------------------||-------------------------------------------------------------o||--------------------------------------------------------------| x3|-(0)----------------------------------------------------------||-(0)---------------------------------------------------------o||-(0)----------------------------------------------------------|
Pre-Chorus: Guitar 2:
PM| PM----||---------------------------|-------------------||---------------------------|-------------------||-----7-----------7---7-6---|--9--7---9-7---9-7-||-0-0-----0-0-0-0---------7-|-------7-----7-----||---------------------------|-------------------||---------------------------|-------------------|
Guitar 3:|-0-------------------------|-(0)---------------||-3-------------------------|-(3)---------------||-2-------------------------|-(2)---------------||-0-------------------------|-(0)---------------||-0-------------------------|-(0)---------------||-0-------------------------|-(0)---------------|
PM PM PM|--------------------|-------------12-12-10-9-||-----------------10-|-10----12-12------------||---9-9---11-11------|------------------------||-------9-------9----|-----9------------------||--------------------|------------------------||--------------------|------------------------|
|--------------------|------------------------||--------------------|------------------------||--------------------|------------------------||-2------------------|-(2)--------------------||-2------------------|-(2)--------------------||-2------------------|-(2)--------------------|
Chorus:|-------------|-------------------------------||-------------|-------------------------------||-------9-----|-7--------------9-----------9--||-4--0-----7--|-7---------9----9-----------9--||-4--0--7--7--|-5---------9----7-----------7--||-4--0-----7--|-----------9-------------------|
|-------------|-------------------------------||-------------|-------------------------------||-------9-----|-6b7r(6)-4-4--/13b14r(13)-9-9--||-4--0-----7--|-------------------------------||-4--0--7--7--|-4b5r(4)-2-2--/11b12r(11)-7-7--||-4--0-----7--|-------------------------------|
|-------------|--------------------------------||-------------|--------------------------------||-------9-----|-7--------------9-----------9---||-4--0-----7--|-7---------9----9-----------9---||-4--0--7--7--|-5---------9----7-----------7---||-4--0-----7--|-----------9--------------------|
|-------------|--------------------------------||-------------|--------------------------------||-------9-----|-6b7r(6)-4-4--/13b14r(13)-9-9---||-4--0-----7--|--------------------------------||-4--0--7--7--|-4b5r(4)-2-2--/11b12r(11)-7-7---||-4--0-----7--|--------------------------------|
|----------------|------------------|----------------||o---------------|-----------------o|----------------||--5--5--5-5-5-6-|-(6)--6--6-6-6-5--|----------------||--7--7--7-7-7-7-|-(7)--7--7-7-7-7--|-4--0--2----(2)-||o-3--3--3-3-3-4-|-(4)--4--4-4-4-3-o|-4--0--2----(2)-||----------------|------------------|-4--0--2----(2)-|
|----------------|------------------|----------------||o---------------|-----------------o|----------------||--5--5--5-5-5-6-|-(6)--6--6-6-6-5--|----------------||--7--7--7-7-7-7-|-(7)--7--7-7-7-7--|-4--0--9----(9)-||o-3--3--3-3-3-4-|-(4)--4--4-4-4-3-o|-4--0--7----(7)-||----------------|------------------|-4--0--9----(9)-|
Bridge:
Guitar 4:|----------------|-------------------||o-------------5-|-(5)-----5-5-3-3---||--6--6--6-4-----|-----------------4-||----------------|-------------------||o---------------|-------------------||----------------|-------------------|
Guitar 1 & 2:|----------------|-------------------||o---------------|-------------------||----------------|-------------------||--0--0--0-0-0-0-|-(0)-0-0---0-0-0-0-||o-0--0--0-0-0-0-|-(0)-0-0---0-0-0-0-||--0--0--0-0-0-0-|-(0)-0-0---0-0-0-0-|
|---------------------|--------------------------||----------------5----|-------------------------o||--6---6---6--4-----6-|--(6)---------------------||---------------------|--------------------------||---------------------|-------------------------o||---------------------|--------------------------|
|---------------------|--------------------------||---------------------|-------------------------o||---------------------|--------------------------||-11--11--11-11-11-11-|-(11)-11-11--11-11-11-11--||--9---9---9--9--9--9-|--(9)--9--9---9--9--9--9-o||--9---9---9--9--9--9-|--(9)--9--9---9--9--9--9--|
|---------------|-------------------|-----------------||-------------5-|-(5)-----5-5-3-3-2-|-----------------||-6--6--6-4-----|-------------------|-----------------||---------------|-------------------|-----------------||---------------|-------------------|-----------------||---------------|-------------------|-----------------|
|---------------|-------------------|-----------------||---------------|-------------------|-----------------||---------------|-------------------|-----------------||-0--0--0-0-0-0-|-(0)-0-0---0-0-0-0-|-4--0--2----(2)--||-0--0--0-0-0-0-|-(0)-0-0---0-0-0-0-|-4--0--2----(2)--||-0--0--0-0-0-0-|-(0)-0-0---0-0-0-0-|-4--0--2----(2)--|
|----------------|-------------------||o-------------5-|-(5)-----5-5-3-3---||--6--6--6-4-----|-----------------4-||----------------|-------------------||o---------------|-------------------||----------------|-------------------|
|----------------|-------------------||o---------------|-------------------||----------------|-------------------||--0--0--0-0-0-0-|-(0)-0-0---0-0-0-0-||o-0--0--0-0-0-0-|-(0)-0-0---0-0-0-0-||--0--0--0-0-0-0-|-(0)-0-0---0-0-0-0-|
|---------------------|------------------------||----------------5----|-----------------------o||--6---6---6--4-----6-|--(6)-------------------||---------------------|------------------------||---------------------|-----------------------o||---------------------|------------------------|
|---------------------|------------------------||---------------------|-----------------------o||---------------------|------------------------||-11--11--11-11-11-11-|-(11)-11-11--11-11-11---||--9---9---9--9--9--9-|--(9)--9--9---9--9--9--o||--9---9---9--9--9--9-|--(9)--9--9---9--9--9---|
|---------------|-------------------|---------------|-----------------||-------------5-|-(5)-----5-5-3-3-2-|---------------|-----------------||-6--6--6-4-----|-------------------|---------------|-----------------||---------------|-------------------|---------------|-----------------||---------------|-------------------|---------------|-----------------||---------------|-------------------|---------------|-----------------|
|---------------|-------------------|---------------|-----------------||---------------|-------------------|---------------|-----------------||---------------|-------------------|---------------|-------9----9\---||-0--0--0-0-0-0-|-(0)-0-0---0-0-0-0-|-4--0--9----9--|-4--0------------||-0--0--0-0-0-0-|-(0)-0-0---0-0-0-0-|-4--0--7----7--|-4--0--7----7\---||-0--0--0-0-0-0-|-(0)-0-0---0-0-0-0-|-4--0--9----9--|-4--0------------|
Pre-Chorus:
Guitar 2: PM| PM----||---------------------------|-------------------||---------------------------|-------------------||-----7-----------7---7-6---|--9--7---9-7---9-7-||-0-0-----0-0-0-0---------7-|-------7-----7-----||---------------------------|-------------------||---------------------------|-------------------|
Guitar 3:|-0-------------------------|-(0)---------------||-3-------------------------|-(3)---------------||-2-------------------------|-(2)---------------||-0-------------------------|-(0)---------------||-0-------------------------|-(0)---------------||-0-------------------------|-(0)---------------|
PM PM PM|--------------------|-------------12-12-10-9-||-----------------10-|-10----12-12------------||---9-9---11-11------|------------------------||-------9-------9----|-----9------------------||--------------------|------------------------||--------------------|------------------------|
|--------------------|------------------------||--------------------|------------------------||--------------------|------------------------||-2------------------|-(2)--------------------||-2------------------|-(2)--------------------||-2------------------|-(2)--------------------|
Chorus:|--------------|-------------------------------||o-------------|-------------------------------||--------9-----|-7--------------9-----------9--||--4--0-----7--|-7---------9----9-----------9--||o-4--0--7--7--|-5---------9----7-----------7--||--4--0-----7--|-----------9-------------------|
|--------------|-------------------------------||o-------------|-------------------------------||--------9-----|-6b7r(6)-4-4--/13b14r(13)-9-9--||--4--0-----7--|-------------------------------||o-4--0--7--7--|-4b5r(4)-2-2--/11b12r(11)-7-7--||--4--0-----7--|-------------------------------|
|-------------|-------------------------------||-------------|-------------------------------||-------9-----|-7--------------9-----------9--||-4--0-----7--|-7---------9----9-----------9--||-4--0--7--7--|-5---------9----7-----------7--||-4--0-----7--|-----------9-------------------|
|-------------|-------------------------------||-------------|-------------------------------||-------9-----|-6b7r(6)-4-4--/13b14r(13)-9-9--||-4--0-----7--|-------------------------------||-4--0--7--7--|-4b5r(4)-2-2--/11b12r(11)-7-7--||-4--0-----7--|-------------------------------|
|---------------|------------------|---------------|------------------||---------------|-----------------o|---------------|------------------||-5--5--5-5-5-6-|-(6)--6--6-6-6-5--|-5--5--5-5-5-6-|-(6)--6--6-6-6-5--||-7--7--7-7-7-7-|-(7)--7--7-7-7-7--|-7--7--7-7-7-7-|-(7)--7--7-7-7-7--||-3--3--3-3-3-4-|-(4)--4--4-4-4-3-o|-3--3--3-3-3-4-|-(4)--4--4-4-4-3--||---------------|------------------|---------------|------------------|
|---------------|------------------|---------------|------------------||---------------|-----------------o|---------------|------------------||-5--5--5-5-5-6-|-(6)--6--6-6-6-5--|-5--5--5-5-5-6-|-(6)--6--6-6-6-5--||-7--7--7-7-7-7-|-(7)--7--7-7-7-7--|-7--7--7-7-7-7-|-(7)--7--7-7-7-7--||-3--3--3-3-3-4-|-(4)--4--4-4-4-3-o|-3--3--3-3-3-4-|-(4)--4--4-4-4-3--||---------------|------------------|---------------|------------------|
|----------------|------------|--------||----------------|------------|--------||----------------|------------|--------||-4--0--2----(2)-|-(2)--------|-(2)----||-4--0--2----(2)-|-(2)--------|-(2)----||-4--0--2----(2)-|-(2)--------|-(2)----|
|----------------|------------|--------||----------------|------------|--------||----------------|------------|--------||-4--0--2----(2)-|-(2)--------|-(2)----||-4--0--2----(2)-|-(2)--------|-(2)----||-4--0--2----(2)-|-(2)--------|-(2)----|
Please rate this tab:
x1.0