Manuel Maria Ponce - Prelude In E tab

                               Manuel Ponce
                                  Prelude
                (Performed by Adam Holzman on the Cavatina Cd)

This is one of the more rare Ponce tabs out there. I tabbed it out with the
help of guitar pro 4. Listen to the midi since the rhythm is quite hard to
get if you just look at the tab.

PS. Not everything is correct but it works very well.

Tabbed - by Zeljko Matovic

Timing - 6/8

first two treble notes of this type should be staccato

|---7--7-0-2---|-0--------------||------------0-|---2-0----------||--------------|-------2--1---2-||--------------|------------4---||--------------|----------------||-0------------|----------------|
|-----------------|-----------------|-----------0-||-------0-----0---|-----------0-----|-----2-4-----||-1---1-----2-----|-------1-2-------|---1---------||---2-----4-----2-|-1-2-4-------2-1-|-------------||-----------------|-----------------|-4-------2---||-0---------------|-----------------|-------------|
|-----0-2---0-4---0-|---5-0---------0---|-------------|---7--7-0-2---||---2-----2-----2---|---2---4-2-0-----4-|-2-0---------|------------0-||-------------------|-2-----------2-----|-----2-1---2-|-1------------||-------------------|-------------------|---------4---|--------------||-0-----------------|-------------------|---------2---|--------------||-------------4-----|-2-----------------|-------------|-0------------|
|-0-------------|---------0-2-----|-----0-2-------||---4-2-0-------|-0-0-2-4-----0-2-|---4-----0-2-4-||---------3-1---|-----------------|-4-------------||-------------4-|-1---------------|---------------||---------------|-----------------|---------------||---------------|-----------------|-4-------------|
|-----------0-----|-------0--------||-5---0-2-4-----0-|---2-4---2------||---3---------3---|-3-----------3--||-----------------|-----------1----||-4---------------|----------------||-----------------|-3--------------|
|--------------|------------0--|-----------------|---------------||-0------------|---0--0-4-2----|-4-----0-2-4-----|-0-2-3-2-------||--------------|-1-------------|---1-3-------1-3-|-----------1---||--------1---2-|---------------|-----------------|-----------3---||----------4---|---------------|-----------------|---------4-----||---4--4-------|---------------|-----------------|---------------|
|----------------|----------------|-------------------|-------------------||----------------|--------2--0-3--|-2-----2-----0-----|-2----------4---2--||-2--------------|---2--2---------|-----2-----1-----2-|----------2---1----||-------------0--|-4--------------|---4-----4-----4---|--------4----------||--------4--2----|----------------|-------------------|-------------------||---2--2---------|----------------|-------------------|---2--2------------|
|-0----------0---|-0--------------|----------------|-----------------||----------2-----|----------0-4---|-4----------2---|-2----------1----||--------1-------|----------------|----------2-----|----------1------||--------------4-|--------4-----2-|--------2-----1-|--------1--------||---4--4---------|---2--2---------|---0--0---------|-----------------||----------------|----------------|----------------|---4--4-------4--|
|---9--9-2-4----|-0-4-2-0-----4-2-|-0---------0-|----------------||------------4--|---------4-2-----|---2-0-------|----------------||---------------|-----------------|-------3-----|----------------||---------------|-----------------|-------------|---4--4-0--2----||-4-------------|-----------------|-------------|-2-----------4--||---------------|-----------------|---------2---|----------------|
|-----------------|----0-2-4-5-7-|---8--------8---8-|---8--------8---8--||-------------0-2-|--------------|-5--------5-----5-|-7--------7-----7--||-----------------|--5-----------|-5--------5-----5-|-5--------5-----5--||-0-----0-2-4-----|--------------|------------------|-----0--0-----0----||---2-4-----------|--------------|-----0--0-----0---|-------------------||-----------------|--0-----------|------------------|-------------------|
|---6--------6---6-|-6------6---5-||-3--------3-----3-|-5------5---5-||-3--------3-----3-|--------------||------------------|--------------||------------------|---4--4---4---||-----3--3-----3---|--------------|
|-5------5---5-|-5------5---3-|-3------3---3--||-5------3---5-|-3------3---3-|-3------2---3--||--------------|--------------|---------------||---4--4---4---|--------------|---2--2---2----||--------------|---2--2---2---|---------------||--------------|--------------|---------------|
|-3------2---0-|-0------------|---0-----------------|-------------||-2------2---2-|-0------4---4-|-0----------------0--|---------0-1-||--------------|--------4---2-|-0------------0-2----|-----0-2-----||--------------|--------------|----------2-4--------|-2-4---------||---1--1---1---|---2--2---2---|---------------------|-------------||--------------|--------------|-----0--0------------|-------------|
|---3----------------|-----------1-|-----0-3-----1---0-|-3-------------||--------------0-1-3-|-----0-1-3---|---1-----1-3---1---|--------5---5--||-7--------0-2-------|-0-2---------|-------------------|--------0---0--||-0------------------|-------------|-------------------|---------------||-----2--2-----------|-------------|-3-----------------|---3--3---2----||-7------------------|---------3---|-------------------|---------------|
|-----------0-----|-----0-2-3-5-|---0-3-7-0-2-5-0-3-|-7------3---3--||-----0-1-3-----0-|-1-3---------|-------------------|---------------||---2---------2---|-------------|-------------------|--------4---4--||-----------------|-------------|-------------------|---------------||-0---------------|---------2---|-------------------|---------------||-----------------|-------------|-0-----------------|---0--0---0----|
|-3------1---0--|---------------|-0------------|---0--0---0--2-4-5-||---------------|-5------5---5--|-1------5---5-|--------4----------||-2------2---2--|-2------2---0--|--------0---0-|-------------------||---------------|---------------|--------------|-4-----------------||---3--3---3----|---2--2---2----|---0--0---1---|-2-----------------||---------------|---------------|--------------|-------------------|
|---7--7-0-2---|-0--------------|-----------------|-----------------||------------0-|---2-0----------|-------0-----0---|-----------0-----||--------------|-------2--1---2-|-1---1-----2-----|-------1-2-------||-9------------|------------4---|---2-----4-----2-|-1-2-4-------2-1-||--------------|----------------|-----------------|-----------------||-0------------|----------------|-0---------------|-----------------|
|---------------|---9--9-2-4---|-2-------------|-------------------||---0--2----2---|------------2-|---3-2-0-----0-|-------2-----0-----||--------2----1-|--------------|---------2-1---|-2---2-----1-----2-||---------------|-4------------|---------------|---4-----4-----4---||-4-------------|--------------|---------------|-------------------||---------------|--------------|---------------|-------------------|
|-----------------|-------0------|---0--0---0----|---0--0---2-----||-2-------0-2-----|---0-2------0-|---0--0---4----|---2--2---2-----||-----1-2-------1-|-2------------|---------------|----------------||---4---------4---|---------13---|---------------|----------------||-----------------|----------0---|---------------|-0------0---0---||-----------------|--------------|-4------4---4--|----------------|
|----------------|----------------||---9--9----9----|---9--9---10----||---8--8---11----|---9--9----9----||----------------|----------------||----------------|----------------||-7------7----7--|-9------9----9--|
|---------------------|------7------7------9--||----12--12----12-----|---9------9------7-----||----11--11----14-----|---------------8-------||---------------------|--------7--------------||---------------------|-7---------------------||-11--------11----11--|-----------------------|
|-----6-----6---0-7-|-----4-----4-----5-||---7-----7---------|---5----5----0-4---||-------------6-----|-------------------||-------6-----------|-------4-----------||-6-----------------|-4-----------------||-------------------|-------------------|
|-----4-------0-----0-|---7--7-0-2---||---4-----2-2---------|------------0-||---------------------|--------------||-2---------------4---|--------------||-------0-------2-----|--------------||---------------------|-0------------|
|-0-----------------|-------------------|-------------|-------------0-----||-------0-----0-----|---0---------0-----|-----0-2-3-0-|---2---0-2-3-----0-||-----1-----2-----1-|---------1-2-------|---2---------|-----2---------2---||---2-----4-----2---|-----2-4-------2-4-|-6-----------|-------------------||-------------------|-------------------|-------------|-------------------||-------------------|-0-----------------|-0-----------|-0-----------------|
|-----0-2-4-0--|---2-------0-2-----|---0-2-4-5-2-|-4-0---0---0-|---0---0---0-||---3----------|-----0-2-4-----0-2-|-3-----------|-----0---3---|-2-------2---||-6------------|-------------------|-------------|-------------|-----2-------||--------------|-------------------|-------------|-------------|-------------||--------------|-------------------|-------------|-------------|-------------||-0------------|-0-----------------|-0-----------|-0-----------|-------------|
Make the treble here very bright and fast|---0-----0-------0---|-----0-------0-------0---||-0-----0---0---0---0-|---0---0---0---0---0---0-||-------------1-------|-2---------------2-------||-----4---------------|---------4---------------||---------------------|-------------------------||---------------------|-------------------------|
|---0------------|--------------|-----------0-|-2------------|-0------||-----0--0-------|--------------|-----0-2-4---|--------------|-0------||-1--------------|--------------|---2---------|-2------------|-1------||----------2-4---|-2------2-----|-------------|-1------------|-2------||--------------2-|---2--2---2---|-------------|---2--2-0-2---|-2------||-0--------------|------------2-|-0-----------|------------2-|-0------|
Tap to rate this tab
 
# A B C D E F G H I J K L M N O P Q R S T U V W X Y Z