Betsy The Serving Maid tab with lyrics by Martin Simpson - Easy chords and tabs for guitar

Martin Simpson – Betsy The Serving Maid tab

BETSY THE SERVING MAID
Arranged by Martin Simpson
Tuning: Gsus4 - D G D G C D

  Key:
-----------------------------------------------------------------------------
| p     = pull-off                                                           |
| h     = hammer-on                                                           |
| /     = slide up                                                            |
| /=    = slide up after a short pause                                        |
| TH    = thumb hammer-on (hit the strings with your thumb, at the sound box) |
-----------------------------------------------------------------------------


|--------0h1p0-------------------------------------||-----0--------0---------------0-h2p0------------0-||---3------------3p2-3p2p0-2h3--------3-p2p0---3---||-5------------------------------------------0-----||--------0-----------0-----0-----------------------||------------------------------3-------------------|
|-0---------------0h1p0-------------------------------------||-----------------------0---------------0-h2p0--------------||-----------0h3p0---------3p2-3p2p0-2h3--------3-p2p0---2h3-||------0h3h5------------------------------------------0-3---||-0-TH------------0-----------0-----0-------------------2---||---------------------------------------3-------------------|
|----0----------------0---0h1p0-----------------||------0------------0---0-------0---------------||-0----------0----3---------------3p2-3p2p0-2h3-||-0------0h3----5-------------------------------||-0-------------------0---------------0-----0---||-----------------------------------------------|
|---------------------0---------------0h1p0-------||-0-h2p0------------0-----------------------0-----||--------3-p2p0---3-------------0h3p0---------3p2-||---------------0----------0h3h5------------------||---------------------0-TH------------0-----------||-3-----------------------------------------------|
|---------------------------------0-----------||-----------0-h2p0------------------0---------||-3p2p0-2h3--------3-p2p0---2h3-0---------0---||-------------------------0-3---0-----0h3-----||-0-----0-------------------2---0-------------||-----------3---------------------------------|
|-5-3p0-----------0-------------------3-1p0-------||-------0-------0---0-----------------------0-2p0-||-----------0h3-------2--3p2p0------0-------------||---------1-----------3--------3/=5---------------||-------------------------------------------------||-------------------------------------------------|
|-----------------------0--------------------------0-||---0-----------------0---0-------------------0--2---||-3---3p2p0---0---0h3-------2-3p2p0------0--3----2---||-----------3---1-----------3-------3/=5-------------||----------------------------------------------------||------------------------------------------------0---|
|-------0h1p0---------------------------------------0---------||-------------0---------------0-h2p0------------------0-------||-----3---------3p2-3p2p0-2h3--------3-p2p0---2h3-0---------0-||-3/5---------------------------------------0-3---0-----0h3---||-------0-----------0-----0-------------------2---0-----------||-----------------------------3-------------------------------|
|-------0h1p0--------------------------------------||-----0-------0----------------0-h2p0------------0-||---3-----------3p2--3p2p0-2h3--------3-p2p0---3---||-5------------------------------------------0-----||-------0------------0-----0-----------------------||------------------------------3-------------------|
|-0---------------0h1p0------------------------------------||-----------------------0---------------0-h2p0-------------||-----------0h3p0---------3p2-3p2p0-2h3--------3-p2p0--2h3-||------0h3h5-----------------------------------------0-3---||-0-TH------------0-----------0-----0------------------2---||---------------------------------------3------------------|
|----0----------------0---0h1p0-----------------||------0------------0---0-------0---------------||-0----------0----3---------------3p2-3p2p0-2h3-||-0------0h3----5-------------------------------||-0-------------------0---------------0-----0---||-----------------------------------------------|
|---------------------0---------------0h1p0-------||-0-h2p0------------0-----------------------0-----||--------3-p2p0---3-------------0h3p0---------3p2-||---------------0----------0h3h5------------------||---------------------0-TH------------0-----------||-3-----------------------------------------------|
|----------------------------------0-----------||-----------0-h2p0-------------------0---------||-3p2p0-2h3--------3-p2p0---2h3-0----------0---||-------------------------0-3---0------0h3-----||-0-----0-------------------2---0--------------||-----------3----------------------------------|
|-------0h1p0-------------------------------------||-----0-------0---------------0-h2p0------------0-||---3-----------3p2-3p2p0-2h3--------3-p2p0---3---||-5-----------------------------------------0-----||-------0-----------0-----0-----------------------||-----------------------------3-------------------|
|-0---------------0h1p0--------------------------------------||-----------------------0---------------0-h2p0---------------||-----------0h3p0---------3p2-3p2p0-2h3--------3-p2p0---2h3--||------0h3h5------------------------------------------0-3----||-0-TH------------0-----------0-----0-------------------2----||---------------------------------------3--------------------|
|----0----------------0h1p0-----------------||------0------------0-------0---------------||-0----------0----3-----------3p2-3p2p0-2h3-||-0------0h3----5---------------------------||-0-------------------0-----------0-----0---||-------------------------------------------|
|--------------------0---------------0h1p0-------||-0-h2p0-----------0-----------------------0-----||-------3-p2p0---3-------------0h3p0---------3p2-||--------------0----------0h3h5------------------||--------------------0-TH------------0-----------||-3----------------------------------------------|
|----------------------------------0---------||-----------0-h2p0-------------------0-------||-3p2p0-2h3--------3-p2p0---2h3-0----------0-||-------------------------0-3---0------0h3---||-0-----0-------------------2---0------------||-----------3--------------------------------|
|-------0h1p0-------------------------------------||-----0-------0---------------0-h2p0------------0-||---3-----------3p2-3p2p0-2h3--------3-p2p0---3---||-5-----------------------------------------0-----||-------0-----------0-----0-----------------------||-----------------------------3-------------------|
|-0---------------0h1p0-------------------------------------||-----------------------0---------------0-h2p0--------------||-----------0h3p0---------3p2-3p2p0-2h3--------3-p2p0---2h3-||------0h3h5------------------------------------------0-3---||-0-TH------------0-----------0-----0-------------------2---||---------------------------------------3-------------------|
|----0----------------0h1p0-----------------||------0------------0-------0---------------||-0----------0----3-----------3p2-3p2p0-2h3-||-0------0h3----5---------------------------||-0-------------------0-----------0-----0---||-------------------------------------------|
|---------------------0---------------0h1p0-------||-0-h2p0------------0-----------------------0-----||--------3-p2p0---3-------------0h3p0---------3p2-||---------------0----------0h3h5------------------||---------------------0-TH------------0-----------||-3-----------------------------------------------|
|----------------------------------0----------||-----------0-h2p0-------------------0--------||-3p2p0-2h3--------3-p2p0---2h3-0----------0--||-------------------------0-3---0------0h3----||-0-----0-------------------2---0-------------||-----------3---------------------------------|
|-------0h1p0-------------------------------------||-----0-------0---------------0-h2p0------------0-||---3-----------3p2-3p2p0-2h3--------3-p2p0---3---||-5-----------------------------------------0-----||-------0-----------0-----0-----------------------||-----------------------------3-------------------|
|-0---------------0h1p0-------------------------------------||-----------------------0---------------0-h2p0--------------||-----------0h3p0---------3p2-3p2p0-2h3--------3-p2p0---2h3-||------0h3h5------------------------------------------0-3---||-0-TH------------0-----------0-----0-------------------2---||---------------------------------------3-------------------|
|----0----------------0---0h1p0-----------------||------0------------0---0-------0---------------||-0----------0----3---------------3p2-3p2p0-2h3-||-0------0h3----5-------------------------------||-0-------------------0---------------0-----0---||-----------------------------------------------|
|--------------------0---------------0h1p0-------||-0-h2p0-----------0-----------------------0-----||-------3-p2p0---3-------------0h3p0---------3p2-||--------------0----------0h3h5------------------||--------------------0-TH------------0-----------||-3----------------------------------------------|
|-----------------------------------0----------||-----------0-h2p0--------------------0--------||-3p2p0-2h3--------3-p2p0---2-h3-0----------0--||-------------------------0-3----0------0h3----||-0-----0-------------------2----0-------------||-----------3----------------------------------|
|-5-3p0-----------0--------------------3-1p0-------||-------0-------0---0------------------------0-2p0-||-----------0h3-------2--3p2p0-------0-------------||---------1-----------3--------3/=5----------------||--------------------------------------------------||--------------------------------------------------|
|-----------------------0--------------------------0--||---0-----------------0---0--------------------0-2----||-3---3p2p0---0---0h3-------2h3p2p0-------0--3---2----||-----------3---1-----------3-------3/=5--------------||-----------------------------------------------------||------------------------------------------------0----|
|-------0h1p0-------------------------------------||-------------0---------------0-h2p0------------0-||-----3---------3p2-3p2p0-2h3--------3-p2p0---3---||-3/5---------------------------------------0-----||-------0-----------0-----0-----------------------||-----------------------------3-------------------|
|-0---------------0h1p0-------------------------------------||-----------------------0---------------0-h2p0--------------||-----------0h3p0---------3p2-3p2p0-2h3--------3-p2p0---2h3-||------0h3h5------------------------------------------0-3---||-0-TH------------0-----------0-----0-------------------2---||---------------------------------------3-------------------|
|---0---------------0h1p0-----------------||-----0-----------0-------0---------------||-0---------0---3-----------3p2-3p2p0-2h3-||-0-----0h3---5---------------------------||-0-----------------0-----------0-----0---||-----------------------------------------|
|---------------------0---------------0h1p0-------||-0-h2p0------------0-----------------------0-----||--------3-p2p0---3-------------0h3p0---------3p2-||---------------0----------0h3h5------------------||---------------------0-TH------------0-----------||-3-----------------------------------------------|
|----------------------------------0----------||-----------0-h2p0-------------------0--------||-3p2p0-2h3--------3-p2p0---2h3-0----------0--||-------------------------0-3---0------0h3----||-0-----0-------------------2---0-------------||-----------3---------------------------------|
|-------0h1p0-------------------------------------||-----0-------0---------------0-h2p0------------0-||---3-----------3p2-3p2p0-2h3--------3-p2p0---3---||-5-----------------------------------------0-----||-------0-----------0-----0-----------------------||-----------------------------3-------------------|
|-0---------------0h1p0-------------------------------------||-----------------------0---------------0-h2p0--------------||-----------0h3p0---------3p2-3p2p0-2h3--------3-p2p0---2h3-||------0h3h5------------------------------------------0-3---||-0-TH------------0-----------0-----0-------------------2---||---------------------------------------3-------------------|
|----0----------------0-0h1p0-----------------||------0------------0---------0---------------||-0----------0----3-------------3p2-3p2p0-2h3-||-0------0h3----5-----------------------------||-0-------------------0-------------0-----0---||---------------------------------------------|
|---------------------0---------------0h1p0-------||-0-h2p0------------0-----------------------0-----||--------3-p2p0---3-------------0h3p0---------3p2-||---------------0----------0h3h5------------------||---------------------0-TH------------0-----------||-3-----------------------------------------------|
|----------------------------------0----------||-----------0-h2p0-------------------0--------||-3p2p0-2h3--------3-p2p0---2h3-0----------0--||-------------------------0-3---0------0h3----||-0-----0-------------------2---0-------------||-----------3---------------------------------|
|-------0h1p0-------------------------------------||-----0-------0---------------0-h2p0------------0-||---3-----------3p2-3p2p0-2h3--------3-p2p0---3---||-5-----------------------------------------0-----||-------0-----------0-----0-----------------------||-----------------------------3-------------------|
|-0----------------0h1p0-----------------||------------------------0---------------||-----------0h3p0----------3p2-3p2p0-2h3-||------0h3h5-----------------------------||-0-TH-------------0-----------0-----0---||----------------------------------------|
|-----------------------0----------||-0-h2p0------------------0--------||--------3-p2p0---2h3-0---------0--||---------------0-3---0-----0h3----||-----------------2---0------------||-3--------------------------------|
|-5-3p0-----------0--------------------3-1p0-------||-------0-------0---0------------------------0-2p0-||-----------0h3-------2-3p2p0-------0--------------||---------1-----------3-------3/=5-----------------||--------------------------------------------------||--------------------------------------------------|
|-----------------------0-------------------------0--||---0-----------------0---0-------------------0-2----||-3---3p2p0---0---0h3-------2h3p2p0------0--3---2----||-----------3---1-----------3-------3/=5-------------||----------------------------------------------------||-----------------------------------------------0----|
|-------0h1p0-------------------------------------||-------------0---------------0-h2p0------------0-||-----3---------3p2-3p2p0-2h3--------3-p2p0---3---||-3/5---------------------------------------0-----||-------0-----------0-----0-----------------------||-----------------------------3-------------------|
|-0---------------0h1p0-------------------------------------||-----------------------0---------------0-h2p0--------------||-----------0h3p0---------3p2-3p2p0-2h3--------3-p2p0---2h3-||------0h3h5------------------------------------------0-3---||-0-TH------------0-----------0-----0-------------------2---||---------------------------------------3-------------------|
|----0----------------0---0h1p0-----------------||------0------------0---0-------0---------------||-0----------0----3---------------3p2-3p2p0-2h3-||-0------0h3----5-------------------------------||-0-------------------0---------------0-----0---||-----------------------------------------------|
|--------------------0---------------0h1p0-------||-0-h2p0-----------0-----------------------0-----||-------3-p2p0---3-------------0h3p0---------3p2-||--------------0----------0h3h5------------------||--------------------0-TH------------0-----------||-3----------------------------------------------|
|-----------------------------------------------|||-----------0-h2p0------------------------------|||-3p2p0-2h3--------3-p2p0--2h3---0--------------|||------------------------0-3-----0--------------|||-0-----0------------------2-----0--------------|||-----------3-----------------------------------||
Please rate this tab:
x1.0