Clouds tab with lyrics by Marty Casey - Easy chords and tabs for guitar

Marty Casey – Clouds tab

Kaddisfly
Set Sail the Prairie
Clouds
Drop Db

Listen to the music to figure the timing out

X2------|5--5--|x--0--2--0--x--0--4--2--
--- 14- x-- 12- x-- x--
-------x--x---6--6---|4--0---|x--x---5--4---
--- 14- x-- 12- x-- x--
-------x--x---6--6---|4--0---|x--x---5--4---
-----------------0-0-0--0-0----------------------|/14--------------0-0-10-8-7----------------------|-----------------0-7-7--7-7----------------------|-----------------x-x-x--x-x-------7--7-777-------|-----------------9-9-9--9-9--7-9--x--x-xxx-------|---11-12-14--7---9-9-9--9-9-------5--4-444-------|
---0-0-0--0-0----------------------------x--x-x-----------------x-xxxxxx-x--|---0-0-10-8-7----------------------------10/8/7-----------------x-xxxxxx-x--|---0-7-7--7-7----------------------------x--x-x-----------------x-xxxxxx-x--|---x-x-x--x-x-------7--7-777-7-----------x--x-x------7-7-777----x-xxxxxx-x--|---9-9-9--9-9--7h9--x--x-xxx-4-5-7--5-55-5--5-5--7h9-x-x-xxx----x-xxxxxx-x--|---9-9-9--9-9-------5--4-444--------5-55-5--5-5------5-4-444----x-xxxxxx-x--|
---0-0-0--0-0-----------------------------------------------|---0-0-10-8-7-----------------------------------------------|---0-7-7--7-7-----------------------------------------------|---x-x-x--x-x-------7--7-77777777---------------------------|---9-9-9--9-9--7h9--x--x-xxxxxxxx---------------------------|---9-9-9--9-9-------5--4-44444444---------------------------|
-------x--x---6--6---|4--0---|x--x---5--4---
--- 14- x-- 12- x-- x--
------|5--5--|x--0--2--0--x--0--4--2--
--- 14- x-- 12- x-- x--
xx-x-xx-xx-x-xx-----------------------------------------------|xx-x-xx-xx-x-xx-----------------------------------------------|xx-x-xx-xx-x-xx-----------------------------------------------|xx-x-x2-xx-x-x2-----------------------------------------------|44-x-42-44-x-42-------------7-9-------------------------------|44-x-4x-44-x-4x----11-12-13/7-9-------------------------------|
Bridge (not 100%)
x2----------|-----14---|-----x----|99-x-11---|xx-x-x----|xx-x-x----|
---------------------------------------------xxx----------|---------------------------------------------xxx----------|---------------------------------------------xxx----------|---------------------------------------------xxx----------|14-12-13-14-17----14-12-12-14-12-13-14-17-12-777----------|16-16-15-15-15----16-16-8--16-16-15-15-15-8--777----------|
Outro (Palm Mute)
---------------------------------------------xxxxxxxxxxxxxxxx----------|---------------------------------------------xxxxxxxxxxxxxxxx----------|---------------------------------------------xxxxxxxxxxxxxxxx----------|---------------------------------------------xxxxxxxxxxxxxxxx----------|14-12-13-14-17----14-12-12-14-12-13-14-17-12-7777777777777777----------|16-16-15-15-15----16-16-8--16-16-15-15-15-8--7777777779999999----------|
Please rate this tab:
x1.0