Maurice Ravel - Pavane Pour Une Infante Defunte Pavane For A Dead Princess tab

1E||--3--------------5--2--0--|--------0--2--2--0--0-----|B||--0--3--0--3--0--5--0-----|--3--0-----0-----0-----0--|G||--------------------------|--------------0-----0-----|D||--------------------2-----|--4-----4-----------0-----|A||--------------3-----------|--------2-----------------|E||--------3-----------------|--2-----------0-----------|
3--7--0-----0-----8--5--3--|--2-----3--5-----7--3--2--|--------1-----1--5-----5--|--1--3--1--3--0-----0--3--|--5-----------------5-----|-----------------7--------|--------2-----------5-----|--0-----------------4-----|--------------0-----------|--------------------------|--------------------------|--------------3-----------|
5--0-----2--3-----5--3--0--|--2--------------5--2--0--|--0--1--0--1-----------1--|--------3--------5--0-----|--------------2-----2-----|-----4-----4-----5-----5--|--------------------2-----|--4-----------------0--4--|--3-----------------------|--2--------------------0--|--------------2-----------|--------------2-----3-----|
7--2-----7----------19--------7-12-|--7--0--3--0-----5--10--7--|-----------0----------0----8------|--------0-----1--5--8---5--|--0----------------------9--------|--------------------7---4--|--2-------------------10----------|-----------------7---------|-----2--7-----2-------------------|--0------------------------|----------------------------------|---------------------------| >fast>>>>>
9--7--0--5--0--3--0--5--0--|--0-----------------------|--0-----------0-----------|-----------0-----3--0--3--|--5-----------5-----------|--0--------------5-----5--|--------4-----------7-----|--2-----2-----2--0-----4--|--0-----------------------|-----2--------------------|--------------------------|--------------------------|
11--0--------0--------2---0--------|----------2------------2--7--|--0--0--3---------3--------0-----|------0-3--------0--3--3--7--|----------------1-------5-----2--|--------------------4--------|--2-----0--2--2---------4--------|----4------------4-----------|-----2--------2---------0--------|--2--------------------------|--0-----------0------------------|-----------------------------| >fast>>>>>
13 --14------15----------14--15--17--|--10--0--9-----------7--7--|--0-----------------------0---0---|--8---8--8--8--8--8--8--8--|--14--14--12--12--12--14--12--11--|--9------9--9--9--9-----9--|--12--12--12--12--12--12--12--12--|--9------------------9-----|----------10----------14----------|---------------------------|----------------------------------|---------------------------|
15 --10------12----------10--12--14--|--0---0---0---0---------------|--12--12--12--12--12--8---12--12--|--12------10------7--7--7--7--|--12--12--12--12--12--11--12--12--|--12--12--12--12--7--7--7--7--|--9-------14--------------14--12--|--11------11------------------|----------------------------------|------------------------------|----------------------------------|------------------7-----------|
17 --5-----7--------5--7--9--|--------2---------0--------0--2--|--3--3--7--7--7--3--7--7--|------3---------0-------3--0-----|--6--6--7--7--7--6--6--7--|----0---------0---------2--0--0--|--4-----------------9--7--|--0---------2-----------4--2--0--|--0-----------0-----------|--2---------0-----------5--0--2--|--------------------------|--0---------------------------0--| >fast>>>>>
19 ----------0--------------------|--2-----3--------2--3--5--|--------0---------------3------|--3--3--3--3--3--3--3--3--|------0---------------2--------|--2--2--4--4--4--2--4--4--|----2---------------4----------|--------5-----------5--4--|--0---------------0------------|--2-----------------------|-------------------------------|--------------------------| >fast>>>>>
21 --------------------------|--------0-----------0--2--|--3-----2--------0--0--0--|--3-----0--0--0--3--0--0--|--0--0--0--0--0--0--0--0--|--0--0--0--0--0--0--0--0--|--2--2--2--2--2--2-----2--|--4--4--2--------4--2--0--|--2-----------------2-----|--0-----------------------|--------------------------|--------------------------|
23 -----------------2--2--2--|--5-----7--------5--7--9--|--0--------------3--3--3--|--3--3--7--7--7--3--7--7--|--0--0--0--0-----6--6--6--|--6--6--7--7--7--6--7--7--|--------7-----4-----------|-----------------4--9--7--|--4--4--0--4--------------|--------------------------|--5-----9-----------------|--3-----------------------|
25 --------2-----------0-------0--2--|--------0--------------2---------0---|------2---------0-2------3--0--3--|----0-2-----3--------3---------1-----|----1---------0----------4--6--1--|--0---------2------1-----------------|--0----------------------4--5-----|------------4----2---------0-4-------|------------0------------5--------|--0---------5------------------------|--0----------------------------0--|-------------------------------------|>fast>>>>> >fast>>>>>27
----------2--0----------|--7--------------5--2--0--|--------0--2--------0-----|----3--5--3--0-----3----|--0--3--0--3--0--5--0-----|--3--0-----0--0--0-----0--|----3--5--1--0--1--5----|--------------0-----0-----|--------------0-----0-----|----2--4--2--3--4-------|--0-----0-----------------|--4-----4-----2-----------|----3--5-----------0----|--------------3-----2-----|--2-----2-----2-----------|-------------3----------|--3-----------------------|--------------0-----------|
30 --7---0-----0-----8--5--3--|--2-----3--5-----7--3--2--|--7------0-----0-----------|--3--3--0--3--0-----0-----|--9------5-----5--9--5-----|--4--4--0-----0--7--0-----|--10-----------------5-----|--4-----4-----4-----4-----|---------------7-----------|--2-----5-----------5-----|--8------------5-----------|--------------3-----------|
32 --0-----2--3-----5--3--0--|--2--------------5--2--0--|--0-----------------------|--3--3--0--3--1--5--3-----|--5--5--2-----2-----2-----|--4-----------2--5--4--5--|--------2-----2-----2-----|--4-----0-----2--------4--|--7-----3-----3-----3-----|--2-----------------------|--5-----------2-----------|--------------------------|
34 --2----7---------7-----------0-7-|-----0--0--0-----0---10--7---|--3----0---------0-------0-1-----|-----1--1--1--0--10------0---|--4------------------------------|-----------------12------9---|-----------------------2---------|---------------------12--10--|--2----------------2-3-----------|--0--------------12----------|------------7--------------------|-----------------------------|
>fast>>>>> 36 --7-----5-----3-----5-----|--0--0----0--------3--2--|--0--------5-----5-----5--|-----0----0-----3--------|-----5-----5--0--5-----5--|--0-------------5--0-----|-----4--7-----------7-----|--2----------2--0-----4--|--------------------------|-------------------------|-----5--------------------|-------------0-----3--2--|
38 --0------------------------------|----------------------15--|--0-----0-----------3------0-----|--------------------------|------------------1-----5-----2--|------4-------------------|--2-----0--2----4-------4--------|----4---------2----0------|--2--2--------2---------7--------|--------------------------|--0-----------0------------------|--3-----------------------|
>fast>>>>> 40 ------15--13----18------18--15--|--12----8------10----1--5--1-----|------13--11--------11------15--|--------12-----10----1--6--1--3--|--15--15--12--------12------15--|--------12-----10----2--5--2--2--|--------------------------------|--10--9----10--0-----------0--3--|--------------------------------|---------------------------------|--------------------------------|---------------------3--------3--| >fast>>>>>
42 -----5---14----------12---------------|--0-----0-----------------|--7--7------------10---------------3--|--0-----0--1-------8------|--5--5---14----11---------------2--2--|--2-----2-------0--11--5--|--7------16--9---------------3--3--3--|--3-----3-------3------5--|--------------------------------3-----|--5-----5--3-----------7--|-------3----------------3-------------|-----3--------------------| >fast>>>>>
44 --------3--6--------5--3--|--5----1----3-----------------|--4--6-----------------5--|-------4----3--------1--------|--5--7--5--8--0--8-----5--|-------5----3-----3--2--3--0--|-----------8-----8--7--5--|--3------3--5-----4--3--3--0--|--6-----------------------|-----3---------3--5-----5--1--|--------------------------|------------------------------| >fast>>>>>
46 -------1--5----------------|--5-------5--1-----------|------------------------|-----3----3----------3--6--|--3-------5--1--------4--|--1---------------------|--3--3----3-------3--3-----|--3-------3--3--2--1--4--|--0--------3--0---------|--4--4----2-------4--7-----|--2-------------------5--|--3--2--1--0--0----2----|--5----------3-------------|-----3-------------------|--------------3---------|---------------------------|-------------------------|------------------------| >fast>>>>>
49 -----------------------15----|--6--8---10--13-----------10-13---18--10--|-----------------------------|-----11------11--------11-------------11--|-------------------0---------|-----12------12-----12------------17--12--|-----4-----------0-----------|-----------------12-----------------------|---3-----------1-------------|------------------------------------------|-------------3---------------|------------------------------------------|
51 --12----8-----10----------10-19----5--1-----|--1--5---10--12----------------|--------11-------------10-------6-----1--3--|--1--6-------10-------------3--|------0-12-5--------10----------5--5--2--2--|--2--5---10--10----------2--2--|--10----------0--12-------------7-----------|-------------9--------0--3--3--|--------------------------------------------|-------------------------3-----|-----------------------------------3-----3--|-------3---------3-------------| >fast>>>>> >fast>>>>>
53 --0-------0--------3-----|-----1--3--6---------0-6-17--22--|--0-------0--1-----6--1--|--4--3--1--5-----0-1-----13------|--2-------2-----0-----0--|--5--------4--0----------14--12--|--3-------3-----3-----2--|-----------------------------14--|--5-------5--3-----------|--6------------------------------|-----3-------------------|---------------------------------|
55 --5-----------6-10-------------|-------1--5----------------|--4--6--8---8---------3--------|-----3----3----------3--6--|--5-------7--------3--2--3--0--|--3--3----3-------3--3-----|--3-----5----------3--3--3--0--|--4--4----2-------4--7-----|--------------3----5-----5--1--|--5----------3-------------|-------------------------------|---------------------------|
57 --5-------5--1-----------|------------------------|---------------------------|--3-------5--1--------4--|--1---------------------|---------------------------|--3-------3--3--2--1--4--|--0--------3--0---------|-------------------0-------|--2-------------------5--|--3--2--1--4--0----2----|-----4-----------0---------|-----3-------------------|--3--------5--3---------|---3-----------1-----------|-------------------------|------------------------|-------------3-------------|
60 --3-------------------5---2---0---|----------0---2---2---0---0-------|--3---3-------3-------5-----0---0-|--3---0-------------0---0-----0---|--4-4---4---4---4---4---4-0-------|--4---------------0---------0---0-|----------------------------------|--4-4---4---4---4-2---------------|--5-------5-------3-------2-------|--2-------2-------3-------3-------|--3-------------------------------|------------------2---------------|
62 --7------------------------8---5---3---|--2-------3---5-------7---3---2---|--7--------------------5---5---------1-|--3---3-------------0---0-0-0---0-|--9-----9---------9----4-5---5-4-5-----|--4-4---4---4---4---------0-------|--10-10---10-9-10---10-----------------|--4-------0-------4-------4-------|-------------------------------7-------|--2-----------------------5-------|--8--------------------5---------------|------------------3---------------|
64 --0-------2---3-------5---2---0---|--2-------------------5-----------|--0-0---0---0---0-----------------|--3---3-------3---1---5---7-0-5---|--5---5---2---------2---2---2---2-|--4-4---4---4---4-2-----5-7---5---|------------------2---------------|--4-------4---------2-----------4-|--7-------3-------0-------3-------|--2---------------------------5---|--5-------------------------------|------------------2-------7-------|
66 --2----7---------7-----------0-7-|-----0--0--0-----0---10--7---|-------0---------0-------0-1-----|-----1--1--1--0--10------0---|---------------------------------|-----------------12------9---|-----------------------2---------|---------------------12--10--|--2----------------2-3-----------|--0--------------12----------|------------7--------------------|-----------------------------|
68 --7-----5-----3-----5-----|--0--0----0--------3--2--|-----------5-----5-----5--|-----0----0-----3--------|-----5-----5-----5-----5--|--0-------------5--0-----|-----4--------------------|--2----------2--0-----4--|--------------------------|-------------------------|-----5--------------------|-------------0-----3--2--|
70
--0--------0--7----10--------|----------2-3-7-10-----0----18-----|--0--0--3-----7----10--0-----|--------0--------------------------|--------4-----7----9---------|------0----------------------------|--2-----0--2--6----10-----7--|----4------------------------------|--2--2-------------9---------|-----------------------7----13-----|--0-----------0--------------|--3-----------------------------3--|
---------15--------------|------------------||-----0-8-----------------|------------------||-------------------------|------------------||---0---------------------|--THE End---------||-------------------------|------------------||-------------------------|------------------||
****************************************************************************** NOTES comparing the tab to the accompanying MIDI file on the Classical Guitar Tablature page
1 * **E||--3--------------5--2--0--|--------0--2--2--0--0-----|B||--0--3--0--3--0--5--0-----|--3--0-----0-----0-----0--|G||--------------------------|--------------0-----0-----|D||--------------------2-----|--4-----4-----------0-----|A||--------------3-----------|--------2-----------------|E||--------3-----------------|--2-----------0-----------|
* MIDI has D in Bass (not F#) ** MIDI doesn't have F# (4th str) (5th fret 5th str)
3 * **--7--0-----0-----8--5--3--|--2-----3--5-----7--3--2--|--------1-----1--5-----5--|--1--3--1--3--0-----0--3--|--5-----------------5-----|-----------------7--------|--------2-----------5-----|--0-----------------4-----|--------------0-----------|--------------------------|--------------------------|--------------3-----------|
* MIDI has G in bass ** MIDI doesn't have E (2nd str) (open 3rd string)
so measure 3 could be played 3 cV......................with barre on 5th fret - --7--------------8--5-----| -----5-----5-----5-----8--| --5-----5-----5-----5-----| --------5-----------5-----| --------------0-----------| --------------------------|
5 * **--0-----2--3-----5--3--0--|--2--------------5--2--0--|--0--1--0--1-----------1--|--------3--------5--0-----|--------------2-----2-----|-----4-----4-----5-----5--|--------------------2-----|--4-----------------0--4--|--3-----------------------|--2--------------------0--|--------------2-----------|--------------2-----3-----|
* MIDI has F# not G (1st str) ** MIDI has D not F# (4th str) (2nd fret 1st str) (open 4th str)
7 * * * * * * * * * * *--2-----7----------19--------7-12-|--7--0--3--0-----5--10--7--|-----------0----------0----8------|--------0-----1--5--8---5--|--0----------------------9--------|--------------------7---4--|--2-------------------10----------|-----------------7---------|-----2--7-----2-------------------|--0------------------------|----------------------------------|---------------------------| >fast>>>>>
* many differences to the MIDI the MIDI has the notes -
7 CV.....................................--2-----7---7----7--|-------------------|--7--------------5--10--7--|--0--3--------------|---------------5---|-----5-----5-----5--8---5--|--------------------|------------5------|--------5-----5-----7---4--|--0-----------------|---------5---------|--------5-----5--7---------|--------------------|------7------------|---------------------------|------------7-------|--5----------------|---------------------------|
Tap to rate this tab
 
# A B C D E F G H I J K L M N O P Q R S T U V W X Y Z