Megadeth - Ill Be There tab version 2

I'll Be There - Megadeth (LIVE THAT ONE NIGHT)

-Standard Tuning (E) (E-A-D-G-B-e)



I tabbed it listening to the live version in That One Night


Tabs by Joaquín Sanjines
youtube.com/joaquin225


h: hammer on
~:vibrato


INTRO:

Mustaine:e |---------------------------|B |-2-2-2-2-2-2-2-2-2-2-2-2-2-|G |-3-3-3-3-3-3-3-3-3-3-3-3-3-|D |-0-0-0-0-0-0-0-0-0-0-0-0-0-|A |-0-0-0-0-0-0-0-0-0-0-0-0-0-|E |---------------------------| (D chord)
Drover:|---------------------------------------------------||-----8h10-----8h10----------8h10-----8h10----------||--7--------7--------7--5/7--------7--------7--/5---||---------------------------------------------------||---------------------------------------------------||---------------------------------------------------|
Drover: (play x3)|----------0------------------0------------------0-----||-------7-----7------------7-----7------------6-----6--||----7-----------7------5-----------5------3-----------||-0------------------0------------------0--------------||------------------------------------------------------||------------------------------------------------------|
----------0-----------------0-----------0-----|-------6-----6-----------6-----6-----6-----6--|----3-----------3-----3-----------5-----------|-0-----------------0--------------------------|----------------------------------------------|----------------------------------------------|
Mustaine:|--------------------------||--------------------------||--------------------7-----||--------------------7-----||--5-5-5-5-5-5-5-5-5-5-----||--------------------------| <--playx2
|------------------------------------------------------------||------------------------------------------------------------||--------------------7-----7-----7-----7----5-5-5-5-3-3-3-3--||--------------------7-----7-----7-----7----5-5-5-5-3-3-3-3--||--5-5-5-5-5-5-5-5-5-5-----5-----5-----5----3-3-3-3-1-1-1-1--||------------------------------------------------------------|
CHORUS:
2 Guitars:|--------------------------------1----------------------------||--------------------------------1----------------------------||-2-----------------------------------------------------------||-2----------------------------3------------------------------||-0---2--3--5---3--2-----2-----3---2--3--5---3--2-----2-------||---------------------3-----3--1-------------------3-----3----|
--------------------------------1------------------------|--------------------------------1------------------------|-2-------------------------------------------------------|-2----------------------------3--------------------------|-0---2--3--5---3--2-----2-----3----2--3/7--5-----5-------|---------------------3-----3--1---------------8-----8--7-|
---------------------------------1--------------|---------------------------------1--------------|-2----------------------------------------------|-2-----------------------------3----2---3---2---|-0---2--3--5---3--2-----2------3----2---3---2---|---------------------3-----3---1----0---1---0---|
END CHORUS:Mustaine: *Drover:--------------- | --------12------------|--------------- | -----------15----15---|-7------------- | --------------14------|-7--let ring--- | --7~------------------|-5------------- | ----------------------|--------------- | ----------------------|
PART A CHORUS PART B (playx2):
Mustaine:-------------------------------------------------|-------------------------------------------------|-7-7-7-7-7-7-7-7-7-7-7-7-5-5-5-5-5-5-5-5-5-5-5-5-|-7-7-7-7-7-7-7-7-7-7-7-7-5-5-5-5-5-5-5-5-5-5-5-5-|-5-5-5-5-5-5-5-5-5-5-5-5-3-3-3-3-3-3-3-3-3-3-3-3-|-------------------------------------------------|
--------------------------------------|--------------------------------------|-3-3-3-3-3-3-3-3-3-3-3-3-3-3-3-3-3-3--|-3-3-3-3-3-3-3-3-3-3-3-3-3-3-3-3-3-3--|-1-1-1-1-1-1-1-1-1-1-1-1-1-1-1-1-1-1--|--------------------------------------|
Drover:|-------------------------------------------------||-7-7-7-7-7-7-7-7-7-7-7-7-7-7-7-7-7-7-7-7-7-7-7-7-||-7-7-7-7-7-7-7-7-7-7-7-7-5-5-5-5-5-5-5-5-5-5-5-5-||-0-0-0-0-0-0-0-0-0-0-0-0-0-0-0-0-0-0-0-0-0-0-0-0-||-------------------------------------------------||-------------------------------------------------|
--------------------------------------|-6-6-6-6-6-6-6-6-6-6-6-6-5-5-5-5-5-5--|-3-3-3-3-3-3-3-3-3-3-3-3-3-3-3-3-3-3--|-0-0-0-0-0-0-0-0-0-0-0-0-0-0-0-0-0-0--|--------------------------------------|--------------------------------------|
------------------------------------------------------|------------------------------------------------------|-7--------7----5--------5----3--------3----3--------5-|-7--------7----5--------5----3--------3----3--------5-|-5----5-5-5----3----3-3-3----1----1-1-1----1----1-1-3-|------------------------------------------------------|
------------------------------------------------------|------------------------------------------------------|-7--------5----5----3----3----3----5------------------|-7--------5----5----3----3----3----5------------------|-5--------3----3----1----1----1----3------------------|------------------------------------------------------|
END:
-------------------------------------------------------|-------------------------------------------------------|-7----7----5----5----3----3----3----5----7-------------|-7----7----5----5----3----3----3----5----7-------------|let ring, then turn down volume.-5----5----3----3----1----1----1----3----5-------------|-------------------------------------------------------|
Tap to rate this tab
 
# A B C D E F G H I J K L M N O P Q R S T U V W X Y Z