Men Oppose - Kasalanan Ba tab

This is the melody of the whole song.....|---------|------------------------|------------------------||---------|------1--1-1-1----------|------------------------||---------|---------------3-1-(1)--|-----1--1--1------------||---------|--1-1-------------------|--1----------3-5-(5)-3--||---------|------------------------|------------------------||---------|------------------------|------------------------|
|---------------------|------------------------|--------------------------||---2-2--2-2-1--------|------------------------|---1--1----------------1--||--------------3-(3)--|-----3-3-3-(3)-1-0-(0)--|--------3-(3)--3-1-(1)----||---------------------|---1--------------------|--------------------------||---------------------|------------------------|--------------------------||---------------------|------------------------|--------------------------|
|----------------------|----------------|---------------||----------------------|-----2-2-2-1----|---------------||---1-1--1-1-----------|-------------3--|-----3-1-0-----||------------3-5-(5)-3-|---1------------|---1-----------||----------------------|----------------|---------------||----------------------|----------------|---------------|
|------------------|---------------------|----------------------||-----1--1--1------|---------------------|---2-2--2--2-1--------||-------------3-1--|---1-----------------|---------------3-(3)--||---1--------------|-----3-5-(5)-3-(3)---|----------------------||------------------|---------------------|----------------------||------------------|---------------------|----------------------|
|-----------------------|---------------------|--------------------||-----------------------|---------------------|--------------------||---3-3-----------------|---5-5--5-5-3-1-(1)--|---1-0-------1-(1)--||-------5-6-(6)-5-(5)---|---------------------|-------3-(3)--------||-----------------------|---------------------|--------------------||-----------------------|---------------------|--------------------|
|------------------------|-----------------------|-----4-4-4-3-1-(1)-4-||---2-2--2-2-1-----------|----------------4-(4)--|---------------------||--------------3-(3)-1-0-|-(0)--3-3-3-(3)--------|---------------------||------------------------|-----------------------|---6-----------------||------------------------|-----------------------|---------------------||------------------------|-----------------------|---------------------|
|-3--3-1-3-1----------|---------------------|-------------------||------------4-(4)--4-|-6--6--6-4-2-(2)-1-4-|-(4)--4-----4-(4)--||---------------------|---------------------|--------5-3--------||---------------------|---------------------|-------------------||---------------------|---------------------|-------------------||---------------------|---------------------|-------------------|
|---4-4-4--4-3-1-(1)-4--|---3--3-1-------3-|--1--1-1--1------------||-----------------------|----------4-(4)---|------------4-2-(2)-1--||-----------------------|------------------|-----------------------||-----------------------|------------------|-----------------------||-----------------------|------------------|-----------------------||-----------------------|------------------|-----------------------|
|---------------------|----------------------|--------------------------||-4--4---------4-(4)--|--------4-4-2-(2)-1-1-|-2------------------------||------5-3-(3)--------|----------------------|---1-1-(1)-3-3-(3)-1-(1)--||---------------------|----------------------|--------------------------||---------------------|----6-6---------------|--------------------------||---------------------|----------------------|--------------------------|
|---------------------|--------------------------|-----------------||------4--4-2-(2)-1-2-|-(2)----------------------|------4--4-2-1-2-||---------------------|-----1-(1)-1-3-(3)-1-(1)--|-----------------||----1----------------|--------------------------|----1------------||---------------------|--------------------------|-----------------||---------------------|--------------------------|-----------------|
|------------------------------|------------|---------------||-(2)---------------1-(1)------|----------1-|-1---4--(4)----||-----1--1--1-3-(3)--------1-1-|-3----------|---3-----------||------------------------------|------------|---------------||------------------------------|------------|---------------||------------------------------|------------|---------------|
|----------------------|--------------------------|----------------------||--------4-4-2-(2)-1-1-|-2------------------------|------4--4-2-(2)-1-2--||----------------------|---1-1-(1)-3-3-(3)-1-(1)--|----------------------||----------------------|--------------------------|----1-----------------||----6-6---------------|--------------------------|----------------------||----------------------|--------------------------|----------------------|
|--------------------------|-----------------|-------------------------------||-(2)----------------------|------4--4-2-1-2-|-(2)---------------1-(1)-------||-----1-(1)-1-3-(3)-1-(1)--|-----------------|-----1--1--1-3-(3)--------1-1--||--------------------------|----1------------|-------------------------------||--------------------------|-----------------|-------------------------------||--------------------------|-----------------|-------------------------------|
|------------|---------------|---------|-----||----------1-|-1---4--(4)----|---------|-----||-3----------|---3-----------|---------|-----||------------|---------------|---------|-----||------------|---------------|---------|-----||------------|---------------|---------|-----|
|---------|---------|---------|-----||---------|---------|---------|-----||---------|---------|---------|-----||---------|---------|---------|-----||---------|---------|---------|-----||---------|---------|---------|-----|
|---------|---------|-----4-4-4-3-1-(1)-4-|-3--3-1-3-1----------||---------|---------|---------------------|------------4-(4)--4-||---------|---------|---------------------|---------------------||---------|---------|---6-----------------|---------------------||---------|---------|---------------------|---------------------||---------|---------|---------------------|---------------------|
|---------------------|-------------------|---4-4-4--4-3-1-(1)-4--||-6--6--6-4-2-(2)-1-4-|-(4)--4-----4-(4)--|-----------------------||---------------------|--------5-3--------|-----------------------||---------------------|-------------------|-----------------------||---------------------|-------------------|-----------------------||---------------------|-------------------|-----------------------|
|---3--3-1-------3-|--1--1-1--1-----------|----------------------||----------4-(4)---|------------4-2-(2)-1-|-4--4---------4-(4)---||------------------|----------------------|------5-3-(3)---------||------------------|----------------------|----------------------||------------------|----------------------|----------------------||------------------|----------------------|----------------------|
|----------------------|--------------------------|----------------------||--------4-4-2-(2)-1-1-|-2------------------------|------4--4-2-(2)-1-2--||----------------------|---1-1-(1)-3-3-(3)-1-(1)--|----------------------||----------------------|--------------------------|----1-----------------||----6-6---------------|--------------------------|----------------------||----------------------|--------------------------|----------------------|
|--------------------------|-----------------|-------------------------------||-(2)----------------------|------4--4-2-1-2-|-(2)---------------1-(1)-------||-----1-(1)-1-3-(3)-1-(1)--|-----------------|-----1--1--1-3-(3)--------1-1--||--------------------------|----1------------|-------------------------------||--------------------------|-----------------|-------------------------------||--------------------------|-----------------|-------------------------------|
|------------|---------------|----------------------||----------1-|-1---4--(4)----|--------4-4-2-(2)-1-1-||-3----------|---3-----------|----------------------||------------|---------------|----------------------||------------|---------------|----6-6---------------||------------|---------------|----------------------|
|--------------------------|---------------------|--------------------------||-2------------------------|------4--4-2-(2)-1-2-|-(2)----------------------||---1-1-(1)-3-3-(3)-1-(1)--|---------------------|-----1-(1)-1-3-(3)-1-(1)--||--------------------------|----1----------------|--------------------------||--------------------------|---------------------|--------------------------||--------------------------|---------------------|--------------------------|
|-----------------|------------------------------|-------------||------4--4-2-1-2-|-(2)---------------1-(1)------|----------1--||-----------------|-----1--1--1-3-(3)--------1-1-|-3-----------||----1------------|------------------------------|-------------||-----------------|------------------------------|-------------||-----------------|------------------------------|-------------|
|---------------|----------------------|---------------------------||-1---4--(4)----|--------4-4-2-(2)-1-1-|-2-------------------------||---3-----------|----------------------|---1-1-(1)-3-3-(3)-1-(1)---||---------------|----------------------|---------------------------||---------------|----6-6---------------|---------------------------||---------------|----------------------|---------------------------|
|----------------------|--------------------------|-----------------------||--------4-4-2-(2)-1-1-|-2------------------------|--------4-4-2-(2)-1-1--||----------------------|---1-1-(1)-3-3-(3)-1-(1)--|-----------------------||----1-1---------------|--------------------------|----1-1----------------||----------------------|--------------------------|-----------------------||----------------------|--------------------------|-----------------------|
|-----------------------------*||-2---------------------------*||---1-1-(1)-3-3-(3)-1-(1)-----*||-----------------------------*||-----------------------------*||-----------------------------*|
Tap to rate this tab
 
# A B C D E F G H I J K L M N O P Q R S T U V W X Y Z