Mercenary - Supremacy tab

|       Supremacy      |
|          By          |
|       Mercenary      |
|         From         |
|    Supremacy "1996"  |


Tuning: Tune all strings 3 steps down to C#, G#, E, G, F#, C#.

Riff 1A, (guitar 1)

---------------------------------------------------|---------------------------------------------------|-4/5/4-12-----4/5/4-12-----4/5/2-7-----4/5/4-4-----|---------------------------------------------------|-2/3/2-10-----2/3/2-10-----2/3/2-5-----2/3/2-2-----|---------------------------------------------------|
Riff 1B, (guitar 2)
---------------------------------------------------|---------------------------------------------------|-4/5/4-9-----4/5/4-9----11/12/11-11-----4/5/4-7----|---------------------------------------------------|-2/3/2-7-----2/3/2-7-----9/10/9---9-----2/3/2-5----|---------------------------------------------------|
riff 2A (guitar 1)
------------------------------------------------------------------------|------------------------------------------------------------------------|-4/5/4-9---9--9---4/5/4-11--11-11---4/5/2-12---12-12--4/5/4-7/5-5/4-----|------------------------------------------------------------------------|-2/3/2-7---7--7---2/3/2--9---9--9---2/3/2-10---10-10--2/3/2-5/3-3/2-----|------------------------------------------------------------------------|
riff 2B (guitar 2)
-----------------------------------------------------------------------------|-----------------------------------------------------------------------------|-11/12/11-12--12-12-11/12/11-14--14-14--11/12/11-16--16-16-11/12/11-11/9-9/7-|-----------------------------------------------------------------------------|--9/10/9--10--10-10--9/10/9--12--12--12--9/10/9--14--14-14--9/10/9---9/7-7/5-|-----------------------------------------------------------------------------|
Riff 3A, (Guitar 1)
-------------------------------------------------------------------|-------------------------------------------------------------------|-4/5/4-12---------4/5/4-12---------4/5/2-7---------4/5/4-4---------|-------------------------------------------------------------------|-2/3/2-10-----2---2/3/2-10-----2---2/3/2-5-----2---2/3/2-2-----2---|----------0-0-0-0----------0-0-0-0---------0-0-0-0---------0-0-0-0-|
riff 3B, (guitar 2)
----------------------------------------------------------------------|----------------------------------------------------------------------|-4/5/4-9---------4/5/4-9---------11/12/11-11----------4/5/4-7---------|----------------------------------------------------------------------|-2/3/2-7-----2---2/3/2-7-----2----9/10/9---9-----2----2/3/2-5-----2---|---------0-0-0-0---------0-0-0-0-------------0-0-0-0----------0-0-0-0-|
Riff 4, (Guitar 1+2)
-----------------------------|-----------------------------|-----------------------------|-----------------------------|------------------------2----|-0-22110-1-0-2*----0-11220---|*artificial harmonic
riff 5 (guitar 1&2)
-------------------------------------------|-------------------------------------------|---------------------------------------5*--|-------------------------------------------|-------------------------------------------|-00001p0-00001p0-003h4-00001p0-00003p0-----|
*Flageolet Riff 6A, (Guitar 1)
-----------------------------------|-----------------------------------|---4/5\4---7\4---9\7---5\4---2-5---|-----------------------------0-----|---2/3\2---5\2---7\5---3\2---0-3---|-0-------0-----0-----0-----0-------|
Riff 6B, (Guitar 2)
---------------------------------------|---------------------------------------|---9/10\9---12\9---14\12---10\7--7-10--|---------------------------------------|---7/8\7----10\7---12\10---8\5---5--8--|-0--------0------0-------0-----0-------|
Riff 7 (Guitar 1+2)
-------------0--------------------------------------|---------------0------------------------------------|-----4---5-------5---5-----4---7---5-------4--------|-2---2---2-------------2----------------------------|-0---0---0---------3-----3-2---5---3-------2--------|--------------------------------------0-0--0----0-0-|
Riff 8A (Guitar 1)
---------------------------------------------------------|---------------------------------------------------1-----|-2---2-----2---------2-------2---2-----2---------2---2---|-3---3-----3-------3---3-----3---3-----3-------3-------3-|-3---3---3-3-----3-------3---3---3---3-3-----3-----------|-1---1---1-1---1-----------1-1---1---1-1---1-------------|
-----------------------------------------------------------|---------------------------------------------------5-------|-5---5-----5---------5-------5---5-----5---------5---5-----|-7---7-----7-------7---7-----7---7-----7-------7-------7---|-7---7---7-7-----7-------7---7---7---7-7-----7-------------|-5---5---5-5---5-----------5-5---5---5-5---5---------------|
Riff 8B (Guitar 2)
----------------------------------------------|----------------------------------------------|------------------------12--------------------|-----10-9-10-12-10-9-10----10-9-10-12-10-9-10-|--12------------------------------------------|----------------------------------------------|
Riff 9A (Guitar 1)
-----------------------------------------------------|-----------------------------------------------------|-7---9--10---1010-10--10-----------------------------|---------------------------10---10---10---9-10p9-----|-5---7---8----8-8--8---8-8----------------------10---|-----------------------------------------------------|
Riff 9B (Guitar 2)
--------------------------------------------------|-8--12--10--------10--10--------------------------|-------------1010-----------9---9---9--7--9p7-----|-5---9---7---------7---7-7--------------------9---|--------------8-8---------------------------------|--------------------------------------------------|
Riff 10A (Guitar 1)
---------0---------------0---------------0-----------------------|---------0---------------0---------------0-----------------------|-----7---3-----------7---3-----------7---3-----------7-----------|-----------------------------------------------------------------|-2---5---------2-----5---------2-----5---------2-----5---333-333-|-0-0---0---0-0-0-0-0---0---0-0-0-0-0---0---0-0-0-0-0---0-111-111-|
---------0---------------0---------------0---------------------------|---------0---------------0---------------0---------------------------|-----7---3-----------7---3-----------7---3-----------7---------------|---------------------------------------------------------------------|-2---5---------2-----5---------2-----5---------2-----5---333-333-333-|-0-0---0---0-0-0-0-0---0---0-0-0-0-0---0---0-0-0-0-0---0-111-111-111-|
---------0---------------0---------------0-------------------------------|---------0---------------0---------------0-------------------------------|-----7---3-----------7---3-----------7---3-----------7-------------------|-------------------------------------------------------------------------|-2---5---------2-----5---------2-----5---------2-----5---333-333-333-333-|-0-0---0---0-0-0-0-0---0---0-0-0-0-0---0---0-0-0-0-0---0-111-111-111-111-|
Riff 10B (Guitar 2)---------0---------------0---------------0-----------------------|---------0---------------0---------------0-----------------------|-----3---3-----------3---3-----------3---3-----------3-----------|-----------------------------------------------------------------|-2---1---------2-----1---------2-----1---------2-----1---333-333-|-0-0---0---0-0-0-0-0---0---0-0-0-0-0---0---0-0-0-0-0---0-111-111-|
---------0---------------0---------------0---------------------------|---------0---------------0---------------0---------------------------|-----3---3-----------3---3-----------3---3-----------3---------------|---------------------------------------------------------------------|-2---1---------2-----1---------2-----1---------2-----1---333-333-333-|-0-0---0---0-0-0-0-0---0---0-0-0-0-0---0---0-0-0-0-0---0-111-111-111-|
---------0---------------0---------------0-------------------------------|---------0---------------0---------------0-------------------------------|-----3---3-----------3---3-----------3---3-----------3-------------------|-------------------------------------------------------------------------|-2---1---------2-----1---------2-----1---------2-----1---333-333-333-333-|-0-0---0---0-0-0-0-0---0---0-0-0-0-0---0---0-0-0-0-0---0-111-111-111-111-|
Riff 11A (guitar 1)
----------------------------------------------------------------------|----------------------------------------------------------------------|--------------------------------------11-11\9-9\5-9---7--9-11--9--7---|--7------------5---5/9---9-10/12-12-----------------------------------|--------2b3*---------------------------9--9\7-7\3-7---5--7--9--7--5---|--5---0------0-3---3/7---7--8/10--8-----------------------------------|
*artificial harmonics Riff 11B (guitar 2)
--------------------------------------------------------------------|---------------------------------------------------------7-8-10-8---|--5----------4----4/8---8-9-11-9----14--14/12--12/-5----------------|--------2*-----------------------------------------------4-5--7-5---|--3----------2----2/6---6-7--9-7----12--12/10--10/-3----------------|------0----0--------------------------------------------------------|
*artificial harmonics Riff 12A (guitar 1)
-----------------------------------------|-----------------------------------------|-----------------------------------------|-(7)---5--10---9---7---5--10---9/10-10\5-|-----------------------------------------|-(5)---3---8---7---5---3---8---7/8---8\3-|
Chord in bracket is not played the first time. Riff 12B (guitar 2)
---------------------------------------|---------------------------------------|-(9)---4---9---7---9---4---9---7-9-7-4-|---------------------------------------|-(7)---2---7---5---7---2---7---5-7-5-2-|---------------------------------------|
Chord in bracket is not played the first time. Riff 12C (guitar 2)
---------------------------------------|---------------------------------------|-14---4---9---7---14---4---9---7-9-7-4-|---------------------------------------|-12---2---7---5---12---2---7---5-7-5-2-|---------------------------------------|
Tap to rate this tab
 
# A B C D E F G H I J K L M N O P Q R S T U V W X Y Z