Metallica - Jump In The Fire tab

Tablatura de NICO M. (nicokbbl@hotmail.com)

Artista: Metallica
Cancion: Jump in the Fire
Album: Kill 'Em All (1983) 






Guitarra 21|-----------------|----------------|----------------|----------------|2|-----------------|----------------|----------------|----------------|3|-----------------|----------------|----------------|x-5-----x-3-----|4|---------3-------|--------3-------|--------3-------|x-5-----x-3-----|5|-----3-4---5-4-3-|----3-4---5-4-3-|----3-4---5-4-3-|x-3-----x-1-----|6|-3-6-------------|3-6-------------|3-6-------------|x-------x-------|
Guitarra 11|-----------------|----------------|----------------|----------------|2|-----------------|----------------|----------------|----------------|3|-----------------|----------------|----------------|x-5-----x-3-----|4|---------3-------|--------3-------|--------3-------|x-5-----x-3-----|5|-----3-4---5-4-3-|----3-4---5-4-3-|----3-4---5-4-3-|x-3-----x-1-----|6|-3-6-------------|3-6-------------|3-6-------------|x-------x-------|
1|-----------------|----------------|----------------|-----------------|2|-----------------|----------------|----------------|-----------------|3|-----------------|----------------|----------------|---5-------3-----|4|---------3-------|--------3-------|3-------3-------|---5-------3-----|5|-----3-4---5-4-3-|----3-4---5-4-3-|--5-4-3---5-4-3-|---3-------1-----|6|-3-6-------------|3-6-------------|----------------|-----------------|
1|-----------------|----------------|----------------|-----------------|2|-----------------|----------------|----------------|-----------------|3|-----------------|----------------|----------------|---5-------3-----|4|---------3-------|--------3-------|3-------3-------|---5-------3-----|5|-----3-4---5-4-3-|----3-4---5-4-3-|--5-4-3---5-4-3-|---3-------1-----|6|-3-6-------------|3-6-------------|----------------|-----------------|
1|-----------------|----------------|----------------|------------------|2|-----------------|----------------|----------------|------------------|3|-----------------|----------------|----------------|------------------|4|---------3-------|--------3-------|3-h5-3---3------|-----------3-5----|5|-----3-4---5-4-3-|----3-4---5-4-3-|-------5---5-4-3|-----3-4-5--------|6|-3-6-------------|3-6-------------|----------------|-3-6--------------|
1|-----------------|----------------|----------------|------------------|2|-----------------|----------------|----------------|------------------|3|-----------------|----------------|----------------|------------------|4|---------3-------|--------3-------|3-h5-3---3------|-----------3-5----|5|-----3-4---5-4-3-|----3-4---5-4-3-|-------5---5-4-3|-----3-4-5--------|6|-3-6-------------|3-6-------------|----------------|-3-6--------------|
1|-----------------|----------------|----------------|2|-----------------|----------------|----------------|3|-----------------|----------------|----------------|4|---------3-------|--------3-------|3-------3-------|5|-----3-4---5-4-3-|----3-4---5-4-3-|--5-4-3---5-4-3-|6|-3-6-------------|3-6-------------|----------------|
1|-----------------|----------------|----------------|2|-----------------|----------------|----------------|3|-----------------|----------------|----------------|4|---------3-------|--------3-------|3-------3-------|5|-----3-4---5-4-3-|----3-4---5-4-3-|--5-4-3---5-4-3-|6|-3-6-------------|3-6-------------|----------------|
1|--------------------|-----------------|--------------|2|--------------------|-----------------|--------------|3|----5-------3-------|------------3----|--------------|4|----5-------3-------|------------3----|--3---3---3---|5|----3-------1-------|------------1----|--3---3---3---|6|--------------------|1-3-3-1-3-0------|--1---1---1---|
1|-------------------|-----------------|--------------|2|-------------------|-----------------|--------------|3|---5-------3-------|------------3----|--------------|4|---5-------3-------|------------3----|--3---3---3---|5|---3-------1-------|------------1----|--3---3---3---|6|-------------------|1-3-3-1-3-0------|--1---1---1---|
1|-------------------|------------------|----------------|2|-------------------|------------------|----------------|3|-------------5-----|x-x-x-6-----------|------3---------|4|-------------5-----|x-x-x-6-----------|------3------3--|5|-------------3-----|x-x-x-4-----------|------1------3--|6|-1-3-3-1-3-0-------|------------1-3-3-|1-3-0--------1--|
1|-------------------|------------------|----------------|2|-------------------|------------------|----------------|3|-------------5-----|x-x-x-6-----------|------3---------|4|-------------5-----|x-x-x-6-----------|------3------3--|5|-------------3-----|x-x-x-4-----------|------1------3--|6|-1-3-3-1-3-0-------|------------1-3-3-|1-3-0--------1--|
Verse 11|-----------------------|-------------------|---------|----------|2|-----------------------|-------------------|---------|----------|3|-----------------------|-------5------x-x-x|---6-----|----------|4|-3---3-----------------|-------5------x-x-x|---6-----|----------|5|-3---3-----------------|-------3------x-x-x|---4-----|----------|6|-1---1------1-3---3---1|-3---0-------------|---------|-1-3-3-1-3|
1|----------3------------|-------------------|---------|----------|2|------------6-3---3-6-3|-----3-6-3---------|-6b8-----|----------|3|------5b7-------5------|---5-------5-3---3-|---------|----------|4|-----------------------|---------------5---|---------|----------|5|-----------------------|-------------------|---------|----------|6|-----------------------|-------------------|---------|-1-3-3-1-3|
1|----------------|----------------|----------------|2|----------------|----------------|----------------|3|---3------------|----------------|--5-----x-x-x-6-|4|---3------3---3-|--3-------------|--5-----x-x-x-6-|5|---1------3---3-|--3-------------|--3-----x-x-x-4-|6|-0--------1---1-|--1---1-3-3-1-3-|0---------------|
1|----------------|----------------|----------------|2|----------------|----------------|----------------|3|---3------2---2-|--2-------------|--5-----x-x-x-6-|4|---3------3---3-|--3-------------|--5-----x-x-x-6-|5|---1------3---3-|--3-------------|--3-----x-x-x-4-|6|-0--------1---1-|--1---1-3-3-1-3-|0---------------|
1|------------|----------------|----------------|-------------------|2|------------|----------------|----------------|-------------------|3|------------|-3--------------|----------------|5-----------6---6-x|4|------------|-3------3---3---|3---------------|5-----------6---6-x|5|------------|-1------3---3---|3---------------|3-----------4---4-x|6|-1-3-3-1-3-0|--------1---1---|1---1-3-3-1-3-0-|-------------------|
1|------------|----------------|----------------|-------------------|2|------------|----------------|----------------|-------------------|3|------------|-3--------------|----------------|5-----------6---6-x|4|------------|-3------3---3---|3---------------|5-----------6---6-x|5|------------|-1------3---3---|3---------------|3-----------4---4-x|6|-1-3-3-1-3-0|--------1---1---|1---1-3-3-1-3-0-|-------------------|
Coro (chorus)1|-----------------|----------------|----------------|----------------|2|-----------------|----------------|----------------|----------------|3|-----------------|----------------|----------------|--5-------3-----|4|---------3-------|--------3-------|--------3-------|--5-------3-----|5|-----3-4---5-4-3-|----3-4---5-4-3-|----3-4---5-4-3-|--3-------1-----|6|-3-6-------------|3-6-------------|3-6-------------|----------------|
1|-----------------|----------------|----------------|----------------|2|-----------------|----------------|----------------|----------------|3|-----------------|----------------|----------------|--5-------3-----|4|---------3-------|--------3-------|--------3-------|--5-------3-----|5|-----3-4---5-4-3-|----3-4---5-4-3-|----3-4---5-4-3-|--3-------1-----|6|-3-6-------------|3-6-------------|3-6-------------|----------------|
1|-----------------|----------------|----------------|----------------|2|-----------------|----------------|----------------|----------------|3|-----------------|----------------|----------------|---5-------3----|4|---------3-------|--------3-------|3-------3-------|---5-------3----|5|-----3-4---5-4-3-|----3-4---5-4-3-|--5-4-3---5-4-3-|---3-------1----|6|-3-6-------------|3-6-------------|----------------|----------------|
1|-----------------|----------------|----------------|----------------|2|-----------------|----------------|----------------|----------------|3|-----------------|----------------|----------------|---5-------3----|4|---------3-------|--------3-------|3-------3-------|---5-------3----|5|-----3-4---5-4-3-|----3-4---5-4-3-|--5-4-3---5-4-3-|---3-------1----|6|-3-6-------------|3-6-------------|----------------|----------------|
1|----------------|----------------|-------------------|2|----------------|----------------|-------------------|3|----------------|----------------|-------------------|4|---------3------|---------3------|-3-h5-3---3--------|5|-----3-4---5-4-3|-----3-4---5-4-3|--------5---5-4-3--|6|-3-6------------|-3-6------------|------------------3|
1|----------------|----------------|-------------------|2|----------------|----------------|-------------------|3|----------------|----------------|-------------------|4|---------3------|---------3------|-3-h5-3---3--------|5|-----3-4---5-4-3|-----3-4---5-4-3|--------5---5-4-3--|6|-3-6------------|-3-6------------|------------------3|
1|----------------|----------------|----------------|----------------|2|----------------|----------------|----------------|----------------|3|----------------|----------------|----------------|----------------|4|---------3-5----|--------3-------|--------3-------|3-------3-------|5|---3-4-5--------|----3-4---5-4-3-|----3-4---5-4-3-|--5-4-3---5-4-3-|6|-6--------------|3-6-------------|3-6-------------|----------------|
1|----------------|----------------|----------------|----------------|2|----------------|----------------|----------------|----------------|3|----------------|----------------|----------------|----------------|4|---------3-5----|--------3-------|--------3-------|3-------3-------|5|---3-4-5--------|----3-4---5-4-3-|----3-4---5-4-3-|--5-4-3---5-4-3-|6|-6--------------|3-6-------------|3-6-------------|----------------|
1|----------------|-----------------|----------------|----------------|2|----------------|-----------------|----------------|----------------|3|---5-------3----|-------------3---|----------------|-----------5----|4|---5-------3----|-------------3---|---3---3---3----|-----------5----|5|---3-------1----|-------------1---|---3---3---3----|-----------3----|6|----------------|-1-3-3-1-3-0-----|---1---1---1---1|-3-3-1-3-0------|
1|----------------|-----------------|----------------|----------------|2|----------------|-----------------|----------------|----------------|3|---5-------3----|-------------3---|----------------|-----------5----|4|---5-------3----|-------------3---|---3---3---3----|-----------5----|5|---3-------1----|-------------1---|---3---3---3----|-----------3----|6|----------------|-1-3-3-1-3-0-----|---1---1---1---1|-3-3-1-3-0------|
1|--------------|-------------------|----------------|----------------|2|--------------|-------------------|----------------|----------------|3|-x-x-x-6------|-------------3-----|----------------|---------5------|4|-x-x-x-6------|-------------3-----|-3---3---3------|---------5------|5|-x-x-x-4------|-------------1-----|-3---3---3------|---------3------|6|--------------|-1-3-3-1-3-0-------|-1---1---1---1-3|-3-1-3-0--------|
1|--------------|-------------------|----------------|----------------|2|--------------|-------------------|----------------|----------------|3|-x-x-x-6------|-------------3-----|----------------|---------5------|4|-x-x-x-6------|-------------3-----|-3---3---3------|---------5------|5|-x-x-x-4------|-------------1-----|-3---3---3------|---------3------|6|--------------|-1-3-3-1-3-0-------|-1---1---1---1-3|-3-1-3-0--------|
1|------------|---------------------|----------------|----------------|2|------------|---------------------|----------------|----------------|3|-----6---6-x|---------------------|----------------|--------------5-|4|-----6---6-x|---------3-----------|----3-----------|----3---------5-|5|-----4---4-x|-----3-4---5-4-3-----|3-4---5-4-3-----|3-4---5-4-3---3-|6|------------|-3-6-------------3-6-|------------3-6-|----------------|
1|------------|---------------------|----------------|----------------|2|------------|---------------------|----------------|----------------|3|-----6---6-x|---------------------|----------------|--------------5-|4|-----6---6-x|---------3-----------|----3-----------|----3---------5-|5|-----4---4-x|-----3-4---5-4-3-----|3-4---5-4-3-----|3-4---5-4-3---3-|6|------------|-3-6-------------3-6-|------------3-6-|----------------|
1|----------------|----------------|----------------|----------------|2|----------------|----------------|----------------|----------------|3|------3---------|----------------|----------------|---------------5|4|------3---------|----3-----------|----3-------3---|----3----------5|5|------1---------|3-4---5-4-3-----|3-4---5-4-3---5-|4-3---5-4-3----3|6|------------3-6-|------------3-6-|----------------|----------------|
1|----------------|----------------|----------------|----------------|2|----------------|----------------|----------------|----------------|3|------3---------|----------------|----------------|---------------5|4|------3---------|----3-----------|----3-------3---|----3----------5|5|------1---------|3-4---5-4-3-----|3-4---5-4-3---5-|4-3---5-4-3----3|6|------------3-6-|------------3-6-|----------------|----------------|
1|----------------|----------------|-------------------|2|----------------|----------------|-------------------|3|-------3--------|----------------|-------------------|4|-------3--------|-----3----------|-----3-------3-h5-3|5|-------1--------|-3-4---5-4-3----|-3-4---5-4-3-------|6|-------------3-6|-------------3-6|-------------------|
1|----------------|----------------|-------------------|2|----------------|----------------|-------------------|3|-------3--------|----------------|-------------------|4|-------3--------|-----3----------|-----3-------3-h5-3|5|-------1--------|-3-4---5-4-3----|-3-4---5-4-3-------|6|-------------3-6|-------------3-6|-------------------|
1|----------------|----------------|----------------|----------------|2|----------------|----------------|----------------|----------------|3|----------------|----------------|----------------|----------------|4|---3------------|-----3-5--------|----3-----------|----3-------3---|5|-5---5-4-3-----3|-4-5------------|3-4---5-4-3-----|3-4---5-4-3---5-|6|-----------3-6--|------------3-6-|------------3-6-|----------------|
1|----------------|----------------|----------------|----------------|2|----------------|----------------|----------------|----------------|3|----------------|----------------|----------------|----------------|4|---3------------|-----3-5--------|----3-----------|----3-------3---|5|-5---5-4-3-----3|-4-5------------|3-4---5-4-3-----|3-4---5-4-3---5-|6|-----------3-6--|------------3-6-|------------3-6-|----------------|
Pre-solo1|-----------------|---------------||------------------|----------------|2|-----------------|---------------||------------------|----------------|3|----------------5|-------3-------||------------------|----------------|4|-----3----------5|-------3-------||-8-8-8-8-8-x-8-8-8|-8-8-x-6-x-8-x-5|5|-4-3---5-4-3----3|-------1-------||-8-8-8-8-8-x-8-8-8|-8-8-x-6-x-8-x-5|6|-----------------|---------------||-6-6-6-6-6-x-6-6-6|-6-6-x-4-x-6-x-3|
1|-----------------|---------------|------------------|----------------|2|-----------------|---------------|------------------|----------------|3|----------------5|-------3-------|------------------|----------------|4|-----3----------5|-------3-------|-8-8-8-8-8-x-8-8-8|-8-8-x-6-x-8-x-5|5|-4-3---5-4-3----3|-------1-------|-8-8-8-8-8-x-8-8-8|-8-8-x-6-x-8-x-5|6|-----------------|---------------|-6-6-6-6-6-x-6-6-6|-6-6-x-4-x-6-x-3|
1|----------------|---------------|-----------------|----------------|2|----------------|---------------|-----------------|----------------|3|----------------|---------------|-----------------|----------------|4|-5-5-5-5-x-5-5-5|-5-5-x-3-x-5---|-8-8-8-8-8---8-8-|8-8-8---6---8---|5|-5-5-5-5-x-5-5-5|-5-5-x-3-x-5---|-8-8-8-8-8---8-8-|8-8-8---6---8---|6|-3-3-3-3-x-3-3-3|-3-3-x-1-x-3---|-6-6-6-6-6---6-6-|6-6-6---4---6---|
1|----------------|---------------|-----------------|----------------|2|----------------|---------------|-----------------|----------------|3|----------------|---------------|-----------------|----------------|4|-5-5-5-5-x-5-5-5|-5-5-x-3-x-5---|-8-8-8-8-8-8-8-8-|8-8-8-8-8-8-8---|5|-5-5-5-5-x-5-5-5|-5-5-x-3-x-5---|-8-8-8-8-8-8-8-8-|8-8-8-8-8-8-8---|6|-3-3-3-3-x-3-3-3|-3-3-x-1-x-3---|-6-6-6-6-6-6-6-6-|6-6-6-6-6-6-6---|
1|-----------------|----------------|------------------|2|-----------------|----------------|------------------|3|-----------------|----------------|------------------|4|-5-5-5-5-5---5-5-|5-5-5---3---5---|8-8-8-8---8---8-8-|5|-5-5-5-5-5---5-5-|5-5-5---3---5---|8-8-8-8---8---8-8-|6|-3-3-3-3-3---3-3-|3-3-3---1---3---|6-6-6-6---6---6-6-|
1|-----------------|----------------|------------------|2|-----------------|----------------|------------------|3|-----------------|----------------|------------------|4|-5-5-5-5-5-5-5-5-|5-5-5-5-5-5-5---|8-8-8-8-------8-8-|5|-5-5-5-5-5-5-5-5-|5-5-5-5-5-5-5---|8-8-8-8-------8-8-|6|-3-3-3-3-3-3-3-3-|3-3-3-3-3-3-3---|6-6-6-6/-18---6-6-|
1|-------------------|------------------|------------------|2|-------------------|------------------|------------------|3|-------------------|------------------|------------------|4|-8-8---8---6---8---|5-5-5-5---5---5-5-|5-5---5---3---5---|5|-8-8---8---6---8---|5-5-5-5---5---5-5-|5-5---5---3---5---|6|-6-6---6---4---6---|3-3-3-3---3---3-3-|3-3---3---1---3---|
1|-------------------|------------------|------------------|2|-------------------|------------------|------------------|3|-------------------|------------------|------------------|4|-8-8-------6---8---|5-5-5-5-------5-5-|5-5-------3---5---|5|-8-8-------6---8---|5-5-5-5-------5-5-|5-5-------3---5---|6|-6-6/-18---4---6---|3-3-3-3/-15---3-3-|3-3/-15---1---3---|
1|-------------------------|------------------------|----------------|2|-------------------------|------------------------|----------------|3|-------------------------|------------------------|----------------|4|-8---8-8---8-8-----8---8-|8---8-8-----6-----8-----|5-5-5-5-5---5-5-|5|-8---8-8---8-8-----8---8-|8---8-8-----6-----8-----|5-5-5-5-5---5-5-|6|-6---6-6---6-6-----6---6-|6---6-6-----4-----6-----|3-3-3-3-3---3-3-|
Solo1|-------------------------|------------------------|--3-------------|2|-6p3p0-------6p3p0-------|6p3p0-------6p3p0-------|3-3---------6-3-|3|-------5p3p0-------5p3p0-|------5p3p0-------5p3p0-|----------------|4|-------------------------|------------------------|----------------|5|-------------------------|------------------------|----------------|6|-------------------------|------------------------|----------------|
1|-----------------|---------------------------------|2|-----------------|---------------------------------|3|-----------------|---------------------------------|4|-5-5-5---3---5---|8---8---8---8---8------8-----8---|5|-5-5-5---3---5---|8---8---8---8---8------8-----8---|6|-3-3-3---1---3---|6---6---6---6---6------6-----6---|
1|-----3-----------|--3------------------------------|2|---3-----6---3---|----6-3------------------------15|3|-5--------------5|7-------5-5-3------3-/15-17-19---|4|-----------------|--------------5------------------|5|-----------------|---------------------------------|6|-----------------|---------------------------------|
1|------------------------------|-----------------|------------------|2|------------------------------|-----------------|------------------|3|------------------------------|-----------------|------------------|4|--8--8-----8--------6-----8---|5-5-5-5--5---5-5-|5-5--5----3---5---|5|--8--8-----8--------6-----8---|5-5-5-5--5---5-5-|5-5--5----3---5---|6|--6--6-----6--------4-----6---|3-3-3-3--3---3-3-|3-3--3----1---3---|
1|-15---------------------------|-----------------|------------------|2|----18-15---------------------|-----------------|--------------0---|3|----------17-15-17-15----15---|--3-----15-----3-|----15---15---0--5|4|----------------------17------|--3-----15-----3-|----15---15---0---|5|------------------------------|-----------------|------------------|6|------------------------------|-----------------|------------------|
1|----------------------------|------------------------|2|----------------------------|------------------------|3|----------------------------|------------------------|4|-8-8-8---8---8-------8---8--|8---8---8-----6---8-----|5|-8-8-8---8---8-------8---8--|8---8---8-----6---8-----|6|-6-6-6---6---6-------6---6--|6---6---6-----4---6-----|
1|----------------------------|------------------------|2|---3-6-3---3---6-3-----3-6-3|----6-3-----------------|3|-7-------5---------5--------|5-4-----5-3---3-5-5-7-3-|4|----------------------------|------------5-----------|5|----------------------------|------------------------|6|----------------------------|------------------------|
1|-------------------|-----------------------|2|-------------------|-----------------------|3|-------------------|-----------------------|4|-5-5-5---5-5---5-5-|5---5-5---3-----5------|5|-5-5-5---5-5---5-5-|5---5-5---3-----5------|6|-3-3-3---3-3---3-3-|3---3-3---1-----3------|
1|-------------------|-----------------------|2|-------------------|-----------------------|3|---3-5-3-----------|-----------------------|4|---------5-3-------|-----------------------|5|-------------5-3-1-|3-5-3-1---1------------|6|-------------------|--------3----3/15-(12)-|
1|------------------------------|--------------------------|2|------------------------------|--------------------------|3|------------------------------|--------------------------|4|--8-----8--8--8--8----8-----8-|-8--8--8----6--------8----|5|--8-----8--8--8--8----8-----8-|-8--8--8----6--------8----|6|--6-----6--6--6--6----6-----6-|-6--6--6----4--------6----|
1|------------------------------|--------------------------|2|-17-18-17-15----15---17-18-17-|15----15---17-18-17-15----|3|-17-19-17-15----15---17-19-17-|15----15---17-19-17-15----|4|-------------17---------------|---17------------------17-|5|------------------------------|--------------------------|6|------------------------------|--------------------------|
1|------------------------------|-------------------------|2|------------------------------|-------------------------|3|------------------------------|-------------------------|4|--5--5----5--5--5--------5--5-|-5--5-----5------3---5---|5|--5--5----5--5--5--------5--5-|-5--5-----5------3---5---|6|--3--3----3--3--3--------3--3-|-3--3-----3------1---3---|
1|------------15----------------|-------------------------|2|---------------18-15----------|-------------18-20-------|3|-15-17-19------------17-15----|15-17-19-15--------------|4|---------------------------17-|-------------------------|5|------------------------------|-------------------------|6|------------------------------|-------------------------|
1|------------------|----------------|----------------|--------------|2|------------------|----------------|----------------|--------------|3|--------------3---|----------------|-----------5----|-x-x-x-6------|4|--------------3---|---3---3---3----|-----------5----|-x-x-x-6------|5|--------------1---|---3---3---3----|-----------3----|-x-x-x-4------|6|--1-3-3-1-3-0-----|---1---1---1---1|-3-3-1-3-0------|--------------|
1|------------------|----------------|----------------|--------------|2|------------------|----------------|----------------|--------------|3|--------------3---|----------------|-----------5----|-x-x-x-6------|4|--------------3---|---3---3---3----|-----------5----|-x-x-x-6------|5|--------------1---|---3---3---3----|-----------3----|-x-x-x-4------|6|--1-3-3-1-3-0-----|---1---1---1---1|-3-3-1-3-0------|--------------|
1|-----------------|----------------|----------------|----------------|2|-----------------|---1---1---1----|----------------|----------------|3|-------------3---|---2---2---2----|-----------5----|-------6---6-x--|4|-------------3---|---3---3---3----|-----------5----|-------6---6-x--|5|-------------1---|---3---3---3----|-----------3----|-------4---4-x--|6|-1-3-3-1-3-0-----|---1---1---1---1|-3-3-1-3-0------|----------------|
1|-----------------|----------------|----------------|----------------|2|-----------------|---1---1---1----|----------------|----------------|3|-------------3---|---2---2---2----|-----------5----|-------6---6-x--|4|-------------3---|---3---3---3----|-----------5----|-------6---6-x--|5|-------------1---|---3---3---3----|-----------3----|-------4---4-x--|6|-1-3-3-1-3-0-----|---1---1---1---1|-3-3-1-3-0------|----------------|
Coro (chorus)1|------------------|----------------|----------------|----------------|2|------------------|----------------|----------------|----------------|3|------------------|----------------|----------------|--5-------3-----|4|----------3-------|--------3-------|--------3-------|--5-------3-----|5|------3-4---5-4-3-|----3-4---5-4-3-|----3-4---5-4-3-|--3-------1-----|6|--3-6-------------|3-6-------------|3-6-------------|----------------|
1|------------------|----------------|----------------|----------------|2|------------------|----------------|----------------|----------------|3|------------------|----------------|----------------|--5-------3-----|4|----------3-------|--------3-------|--------3-------|--5-------3-----|5|------3-4---5-4-3-|----3-4---5-4-3-|----3-4---5-4-3-|--3-------1-----|6|--3-6-------------|3-6-------------|3-6-------------|----------------|
1|-----------------|----------------|----------------|----------------|2|-----------------|----------------|----------------|----------------|3|-----------------|----------------|----------------|---5-------3----|4|---------3-------|--------3-------|3-------3-------|---5-------3----|5|-----3-4---5-4-3-|----3-4---5-4-3-|--5-4-3---5-4-3-|---3-------1----|6|-3-6-------------|3-6-------------|----------------|----------------|
1|-----------------|----------------|----------------|----------------|2|-----------------|----------------|----------------|----------------|3|-----------------|----------------|----------------|---5-------3----|4|---------3-------|--------3-------|3-------3-------|---5-------3----|5|-----3-4---5-4-3-|----3-4---5-4-3-|--5-4-3---5-4-3-|---3-------1----|6|-3-6-------------|3-6-------------|----------------|----------------|
1|----------------|----------------|-------------------|2|----------------|----------------|-------------------|3|----------------|----------------|-------------------|4|---------3------|---------3------|-3-h5-3---3--------|5|-----3-4---5-4-3|-----3-4---5-4-3|--------5---5-4-3--|6|-3-6------------|-3-6------------|------------------3|
1|----------------|----------------|-------------------|2|----------------|----------------|-------------------|3|----------------|----------------|-------------------|4|---------3------|---------3------|-3-h5-3---3--------|5|-----3-4---5-4-3|-----3-4---5-4-3|--------5---5-4-3--|6|-3-6------------|-3-6------------|------------------3|
1|----------------|----------------|----------------|----------------|2|----------------|----------------|----------------|----------------|3|----------------|----------------|----------------|----------------|4|---------3-5----|--------3-------|--------3-------|3-------3-------|5|---3-4-5--------|----3-4---5-4-3-|----3-4---5-4-3-|--5-4-3---5-4-3-|6|-6--------------|3-6-------------|3-6-------------|----------------|
1|----------------|----------------|----------------|----------------|2|----------------|----------------|----------------|----------------|3|----------------|----------------|----------------|----------------|4|---------3-5----|--------3-------|--------3-------|3-------3-------|5|---3-4-5--------|----3-4---5-4-3-|----3-4---5-4-3-|--5-4-3---5-4-3-|6|-6--------------|3-6-------------|3-6-------------|----------------|
1|----------------|-----------------------------------------------|2|----------------|-----------------------------------------------|3|---5-------3----|-------------------------------------3---------|4|---5-------3----|-------------------------------------3---------|5|---3-------1----|-------------------------------------1---------|6|----------------|-1-----3-----3-----1-----3-----0---------------|
(Outro) Solo1|----------------|-----------------------------------------------|2|----------------|-----------------------------------------------|3|---5-------3----|---------------------------------------15-15-17|4|---5-------3----|------------------15-15-17-15----15-17---------|5|---3-------1----|------13-13-15-17-------------17---------------|6|----------------|13-15------------------------------------------|
1|------------------------------------------------|2|------------------------------------------------|3|------------------------------------------------|4|-----------3-----------3-----------3------------|5|-----------3-----------3-----------3------------|6|-----------1-----------1-----------1-----------1|
1|----------------------18-15-------------------18|2|-------------15-18-15-------18-15----15-18-15---|3|-17-15----19----------------------19------------|4|-------17---------------------------------------|5|------------------------------------------------|6|------------------------------------------------|
1|------------------------------------------------|2|------------------------------------------------|3|-----------------------------------5------------|4|-----------------------------------5------------|5|-----------------------------------3------------|6|-----3-----3-----1-----3-----0------------------|
1|-15-------------------18-15---------------------|2|----18-15----15-18-15-------18-15----15-15-18-18|3|----------19----------------------19------------|4|------------------------------------------------|5|------------------------------------------------|6|------------------------------------------------|
1|-----------------------------|----------------------------------|2|-----------------------------|----------------------------------|3|----x-----x--x--6------------|--------------------3-------------|4|----x-----x--x--6------------|--------------------3-------------|5|----x-----x--x--4------------|--------------------1-------------|6|-------------------------1--3|----3-----1-3-0-------------------|
1|-------------------------------|-------18-20-----18-20--18-20-18-15|2|-15-------------------18-20-20-|-18-15-----------------------------|3|----17-15----15-19-------------|-----------------------------------|4|----------17-------------------|-----------------------------------|5|-------------------------------|-----------------------------------|6|-------------------------------|-----------------------------------|
1|----------------------------------|2|----------------------------------|3|----------------------------------|4|--3-----3------3------------------|5|--3-----3------3------------------|6|--1-----1------1--------1-----3---|
1|----15--------------15-18-15----15|2|-18----18-20--18-20----------18---|3|----------------------------------|4|----------------------------------|5|----------------------------------|6|----------------------------------|
1|--------------------------------------|------------------------------|2|--------------------------------------|------------------------------|3|-----------------------5------------x-|x-x----6----------------------|4|-----------------------5------------x-|x-x----6----------------------|5|-----------------------3------------x-|x-x----4----------------------|6|--3-----1-----3-----0-----------------|--------------------1--3-----3|
1|-18-15--------------------------------|------------------------------|2|-------18-15-18-15--------------18----|---18-----18-15-18-20-18-20-18|3|-------------------17-15----15--17-19-|---17-19--17------------------|4|-------------------------17-----------|------------------------------|5|--------------------------------------|------------------------------|6|--------------------------------------|------------------------------|
1|------------------------------------|2|------------------------------------|3|----------------3-------------------|4|----------------3-----------------3-|5|----------------1-----------------3-|6|-----1--3--0----------------------1-|
1|------------------------------------|2|-15---------------------------------|3|----17-15----15---17-19-17-15----15-|4|----------17------------------17----|5|------------------------------------|6|------------------------------------|
1|--------------------------------------|2|--------------------------------------|3|--------------------------------------|4|--------3--------3--------------------|5|--------3--------3--------------------|6|--------1--------1--------1--3----3---|
1|--------------------------------------|2|-------------------------15-18-15-----|3|-17-19-15-17-15----15-19------------17|4|----------------17--------------------|5|--------------------------------------|6|--------------------------------------|
1|-------------------------------------|---------------------------------|2|-------------------------------------|---------------------------------|3|---------------5---------------x--x--|x----6---------------------------|4|---------------5---------------x--x--|x----6---------------------------|5|---------------3---------------x--x--|x----4---------------------------|6|1----3----0--------------------------|------------------1----3-----3---|
1|-------------------------------------|---------------------------------|2|-------------------------------------|--------------------15---18-15-18|3|--15--------15---17-19-17-15----15-19|-15-17-15----15--19--------------|4|-------17--------------------17------|----------17---------------------|5|-------------------------------------|---------------------------------|6|-------------------------------------|---------------------------------|
1|-----------------------------------------------|2|-----------------------------------------------|3|------------------3---------------------------|4|-------------------3--------------------3------|5|-------------------1--------------------3------|6|-1-----3-----0--------------------------1------|
1|-----------------------------------------------|2|15----15-18-15-18-15----15-18-15-18-15----15-18|3|---19----------------19----------------19------|4|-----------------------------------------------|5|-----------------------------------------------|6|-----------------------------------------------|
1|-----------------------------------------------|2|-----------------------------------------------|3|-----------------------------------------------|4|----3-----------3------------------------------|5|----3-----------3------------------------------|6|----1-----------1-----------1-----3-----3-----1|
1|-----------------------------------------------|2|15-18-15----15-18-15----15-18-15-18-15----15-18|3|---------17----------17----------------17------|4|-----------------------------------------------|5|-----------------------------------------------|6|-----------------------------------------------|
1|--------------------------------------------|2|--------------------------------------------|3|-----------------5-----------------x-----x-x|4|-----------------5-----------------x-----x-x|5|-----------------3-----------------x-----x-x|6|-----3-----0--------------------------------|
1|--------------------------------------------|2|-15-15-18-15----15-18-15-15-18-15-15-18-15--|3|-------------17-----------------------------|4|--------------------------------------------|5|--------------------------------------------|6|--------------------------------------------|
1|-------------------------------------|2|-------------------------------------|3|-----6-------------------------------|4|-----6-------------------------------|5|-----4-------------------------------|6|------------------1-----3-----3-----1|
1|-----------15-17-15-15-15-18-15-15-15|2|-18-20-------------------------------|3|-------------------------------------|4|-------------------------------------|5|-------------------------------------|6|-------------------------------------|
1|------------------------------------------------|2|------------------------------------------------|3|-----------------3------------------------------|4|-----------------3--------------------3---------|5|-----------------1--------------------3---------|6|-----3-----0--------------------------1---------|
1|-20-15-15-15-18-15-15-15-17-15-15-15-18-15-15-15|2|------------------------------------------------|3|------------------------------------------------|4|------------------------------------------------|5|------------------------------------------------|6|------------------------------------------------|
1|------------------------------------------------|2|------------------------------------------------|3|------------------------------------------------|4|--3-----------3---------------------------------|5|--3-----------3---------------------------------|6|--1-----------1-----------1-----3-----3-----1---|
1|-20-15-15-15-18-15-15-15-17-15-15-15-18-15-15-15|2|------------------------------------------------|3|------------------------------------------------|4|------------------------------------------------|5|------------------------------------------------|6|------------------------------------------------|
1|-----------------------------------------------|2|-----------------------------------------------|3|-------------5-----------------x-----x-----x---|4|-------------5-----------------x-----x-----x---|5|-------------3-----------------x-----x-----x---|6|-3-----0---------------------------------------|
1|-20-15-15-15-18-15-15-15-17-15-15-15-18-15-15-15|2|------------------------------------------------|3|------------------------------------------------|4|------------------------------------------------|5|------------------------------------------------|6|------------------------------------------------|
1|------------------------------------------------|2|------------------------------------------------|3|--6---------------------------------------------|4|--6---------------------------------------------|5|--4---------------------------------------------|6|-----------------------1-----3-----3-----1-----3|
1|-20-15-15-15-18-15-15-15-17-15-15-15-18-15-15-15|2|------------------------------------------------|3|------------------------------------------------|4|------------------------------------------------|5|------------------------------------------------|6|------------------------------------------------|
1|------------------------------------------------|2|------------------------------------------------|3|-----------3------------------------------------|4|-----------3--------------------3-----------3---|5|-----------1--------------------3-----------3---|6|-----0--------------------------1-----------1---|
1|-20-15-15-15-22-15-15-15-20-15-15-15-18-15-15-15|2|------------------------------------------------|3|------------------------------------------------|4|------------------------------------------------|5|------------------------------------------------|6|------------------------------------------------|
1|------------------------------------------------|2|------------------------------------------------|3|------------------------------------------------|4|--------3---------------------------------------|5|--------3---------------------------------------|6|--------1-----------1-----3-----3-----1-----3---|
1|-17-15-15-15-18-15-15-15-20-15-15-15-18-15-15-15|2|------------------------------------------------|3|------------------------------------------------|4|------------------------------------------------|5|------------------------------------------------|6|------------------------------------------------|
1|------------------------------------------------|2|------------------------------------------------|3|--------5-----------------x-----x-----x-----6---|4|--------5-----------------x-----x-----x-----6---|5|--------3-----------------x-----x-----x-----4---|6|--0---------------------------------------------|
1|-17-15-15-15-20-15-15-15-18-15-15-15-17-15-15-15|2|------------------------------------------------|3|------------------------------------------------|4|------------------------------------------------|5|------------------------------------------------|6|------------------------------------------------|
1|---------------------------------------------|2|---------------------------------------------|3|---------------------------------------------|4|---------------------------------------------|5|---------------------------------------------|6|--------------1-----3-----3-----1-----3-----0|
1|-18-15-------18-15-15-18-15----15-18-15-18-15|2|-------18-15----------------18---------------|3|---------------------------------------------|4|---------------------------------------------|5|---------------------------------------------|6|---------------------------------------------|
1|------------------------------------------------|2|------------------------------------------------|3|-----3------------------------------------------|4|-----3--------------------3-----------3---------|5|-----1--------------------3-----------3---------|6|--------------------------1-----------1---------|
1|----15-18-15-18-15----15-18-15-18-15----15-18-15|2|-18----------------18----------------18---------|3|------------------------------------------------|4|------------------------------------------------|5|------------------------------------------------|6|------------------------------------------------|
1|-----------------------------|--------------------------------------|2|-----------------------------|--------------------------------------|3|-----------------------------|-5--------------x---x----x-----6------|4|-3---------------------------|-5--------------x---x----x-----6------|5|-3---------------------------|-3--------------x---x----x-----4------|6|-1------1--3----3--1----3--0-|--------------------------------------|
1|----18-20-18-20---18-15------|15-18-20-18-15----15-18-18-20-20-18-15|2|--------------------------18-|---------------18---------------------|3|-----------------------------|--------------------------------------|4|-----------------------------|--------------------------------------|5|-----------------------------|--------------------------------------|6|-----------------------------|--------------------------------------|
1|------------------------------------------------|2|------------------------------------------------|3|-----------------------------------------------3|4|-----------------------------------------------3|5|-----------------------------------------------1|6|-----------1-----3-----3-----1-----3-----0------|
1|-18-15----15------------------------------------|2|-------18----18-15-18-15----15------------------|3|-------------------------17----17-15-17-15----15|4|-------------------------------------------17---|5|------------------------------------------------|6|------------------------------------------------|
1|-----------------------------|----------------------------------|2|-----------------------------|----------------------------------|3|-----------------------------|--------------------------------5-|4|-----------------3-----3---3-|--------------------------------5-|5|-----------------3-----3---3-|--------------------------------3-|6|-----------------1-----1---1-|----1--3----3----1----3----0------|
1|-----------------------------|----------------------------------|2|-----------------------------|----------------------------------|3|----15-17-17-19-17-15--------|---15-17-15--------15---17---15---|4|-17--------------------------|17------------17------------------|5|-----------------------------|----------------------------------|6|-----------------------------|----------------------------------|
1|------------------------------|------------------------|2|------------------------------|------------------------|3|--------x--x--x--6------------|--------------------3---|4|--------x--x--x--6------------|--------------------3---|5|--------x--x--x--4------------|--------------------1---|6|------------------------------|--1--3--3--1--3--0------|
1|------------------------------|------------------------|2|-17-18-17-18-17-18------------|------------------------|3|-17-19-17-19-17-19-17-15-17-15|------------------------|4|------------------------------|-17-15------------------|5|------------------------------|-------17-15-13-15-13-15|6|------------------------------|------------------------|
1|--------------------------|-----------------------------|2|--------------------------|-----------------------------|3|--------------------------|-------------------5---------|4|-----------3----3----3----|-------------------5---------|5|-----------3----3----3----|-------------------3---------|6|-----------1----1----1----|-1--3--3--1--3--0------------|
1|--------------------------|-----------------------------|2|--------------------------|-----------------------------|3|--------------------------|------------15-17-17-19-17-15|4|--------------------------|------15-17------------------|5|-17-15-13----13--------13-|15-17------------------------|6|----------15--------15----|-----------------------------|
1|------------------------------|-----------------------------------|2|------------------------------|-----------------------------------|3|---x--x--x----6---------------|----------------------------3------|4|---x--x--x----6---------------|----------------------------3------|5|---x--x--x----4---------------|----------------------------1------|6|-----------------------------1|----3-----3-----1-----3--0---------|
1|------------------------------|-----------------------------------|2|-------------------------18---|---18-------18-------18-18-18-18-18|3|-17-15----15----15-17-19----17|19----17-19----17-19----17-19-17-19|4|-------17----17---------------|-----------------------------------|5|------------------------------|-----------------------------------|6|------------------------------|-----------------------------------|
1|------------------------|----------------|----------------|2|------------------------|----------------|----------------|3|------------------------|----------5-----|x-x-x-6---------|4|----3-------3-----3-----|----------5-----|x-x-x-6---------|5|----3-------3-----3-----|----------3-----|x-x-x-4---------|6|----1-------1-----1---1-|3-3-1-3-0-------|----------------|
1|------------------------|----------------|----------------|2|-18---18-18---18--------|----------------|----------------|3|-17---19-17---19--------|----------------|x-x-x-6---------|4|------------------------|----------------|x-x-x-6---------|5|------------------------|----------------|x-x-x-4---------|6|------------------------|----------------|----------------|
1|-----------------|----------------|----------------|----------------|2|-----------------|----------------|----------------|----------------|3|-----------------|----------------|5---------------|3-3-------------|4|---------3-------|--------3-------|5---------------|3-3-------------|5|-----3-4---5-4-3-|----3-4---5-4-3-|3---------------|1-1-------------|6|-3-6-------------|3-6-------------|----------------|----------------|
1|-----------------|----------------|----------------|----------------|2|-----------------|----------------|----------------|----------------|3|-----------------|----------------|5---------------|3-3-------------|4|---------3-------|--------3-------|5---------------|3-3-------------|5|-----3-4---5-4-3-|----3-4---5-4-3-|3---------------|1-1-------------|6|-3-6-------------|3-6-------------|----------------|----------------|
1|----------------|2|----------------|3|----------------|4|-5--------------|5|-5--------------|6|-3--------------|
1|----------------|2|----------------|3|----------------|4|-5--------------|5|-5--------------|6|-3--------------|
Tap to rate this tab
 
# A B C D E F G H I J K L M N O P Q R S T U V W X Y Z