Metallica - The Outlaw Torn tab

ok.. so heres the deal...

Rhythm- Jamez- Top
Lead- Kirkster- Bottom

when you see the two placements connected at the end like this-
--|
--|
--|
--|
--|
--|
  |
--|
--|
--|
--|
--|
--|
then there's two guitars playing and if not.. they're playing the samething

Metallica
The Outlaw Torn
Load 1996
Nowadays Metallica is
                   James Hetfield
                   Lars Ulrich
                   Kirk Hammett
                   Robert Trujillo

in the intro jamez strokes the chord up and kirk does a down stroke
with his wah pedal. and the verses.. a bass guitarist is playing.
in the outro for what kirk is playing, I'm not sure those are the right rhythms.. so its
what you can get an idea of. so.. rate it!!!

fade inPM - - - - - - - - - - - - - - - - - - -D#||---------------------------0-|--------------------------0-|A#||---------------------------0-|--------------------------0-|F#||---------------------------0-|--------------------------0-|C#||--3-3--3-3--3-3--3-3--3--3-3-|---3--3-3--3-3--3-3--3--3-3-|G#||--3-3--3-3--3-3--3-3--3--3-3-|---3--3-3--3-3--3-3--3--3-3-|D#||--0-0--0-0--0-0--0-0--0--0-0-|---0--0-0--0-0--0-0--0--0-0-|
|| |D#||---------------------------0-|--------------------------0-|A#||---------------------------0-|--------------------------0-|F#||---------------------------0-|--------------------------0-|C#||---------------------------3-|--------------------------3-|G#||---------------------------3-|--------------------------3-|D#||---------------------------0-|--------------------------0-| Wah Wah
PM - - - - - - - - - - - - - - - - - -|--------------------------0-|--------------------------0-||--------------------------0-|--------------------------0-||--------------------------0-|--------------------------0-||---3--3-3--3-3--3-3--3--3-3-|---3--3-3--3-3--3-3--3--3-3-||---3--3-3--3-3--3-3--3--3-3-|---3--3-3--3-3--3-3--3--3-3-||---0--0-0--0-0--0-0--0--0-0-|---0--0-0--0-0--0-0--0--0-0-|
| ||--------------------------0-|--------------------------0-||--------------------------0-|--------------------------0-||--------------------------0-|--------------------------0-||--------------------------3-|--------------------------3-||--------------------------3-|--------------------------3-||--------------------------0-|--------------------------0-| Wah Wah
PM - - - - - - - - - - - - - - - - - -|--------------------------0-|--------------------------0-||--------------------------0-|--------------------------0-||--------------------------0-|--------------------------0-||---3--3-3--3-3--3-3--3--3-3-|---3--3-3--3-3--3-3--3--3-3-||---3--3-3--3-3--3-3--3--3-3-|---3--3-3--3-3--3-3--3--3-3-||---0--0-0--0-0--0-0--0--0-0-|---0--0-0--0-0--0-0--0--0-0-|
| ||--------------------------0-|--------------------------0-||--------------------------0-|--------------------------0-||--------------------------0-|--------------------------0-||--------------------------3-|--------------------------3-||--------------------------3-|--------------------------3-||--------------------------0-|--------------------------0-| Wah Wah
PM - - - - - - - - - - - - - - - -|--------------------------0-|-----------------------------||--------------------------0-|-----------------------------||--------------------------0-|-----------------------------||---3--3-3--3-3--3-3--3--3-3-|---3--3-3--3-3--3-3---3-3-3--||---3--3-3--3-3--3-3--3--3-3-|---3--3-3--3-3--3-3---3-3-3--||---0--0-0--0-0--0-0--0--0-0-|---0--0-0--0-0--0-0---0-0-0--|
| ||--------------------------0-|----------------------0-0-0--||--------------------------0-|----------------------0-0-0--||--------------------------0-|----------------------0-0-0--||--------------------------3-|----------------------3-3-3--||--------------------------3-|----------------------3-3-3--||--------------------------0-|----------------------0-0-0--| Wah Wah
both jamez and kirk|----------------------------------|----------------------------||----------------------------------|----------------------------||----------------------------------|----------------------------||----------------------------------|--4br-------4br-----4-4br---||--5-7---7---5-7---5-7---5-7---7---|--5--5-5--5-5--5--5-5-5--5--||--0-0-0-0-0-0-0-0-0-0-0-0-0-0-0-0-|----------------------------|PM - - - - - -
|----------------------------------|----------------------------||----------------------------------|----------------------------||----------------------------------|----------------------------||----------------------------------|--4br-------4br-----4-4br---||--5-7---7---5-7---5-7---5-7---7---|--5--5-5--5-5--5--5-5-5--5--||--0-0-0-0-0-0-0-0-0-0-0-0-0-0-0-0-|----------------------------|PM - - - - - -
|----------------------------------|----------------------------||----------------------------------|----------------------------||----------------------------------|----------------------------||----------------------------------|--4br-------4br-----4-4br---||--5-7---7---5-7---5-7---5-7---7---|--5--5-5--5-5--5--5-5-5--5--||--0-0-0-0-0-0-0-0-0-0-0-0-0-0-0-0-|----------------------------|PM - - - - - -
|----------------------------------|----------------------------||----------------------------------|----------------------------||----------------------------------|----------------------------||----------------------------------|--4br-------4br-----4-4br---||--5-7---7---5-7---5-7---5-7---7---|--5--5-5--5-5--5--5-5-5--5--||--0-0-0-0-0-0-0-0-0-0-0-0-0-0-0-0-|----------------------------|PM - - - - - -
|--------------------|-------------------|------------------|---------------||--------------------|-------------------|------------------|---------------||--7-9---------------|----------------9/-|------------------|---------------||--7-9---------------|----------------9/-|------------------|---------------||--5-7---------------|----------------7/-|------------------|---------------||--------------------|-------------------|------------------|---------------|
| ||--------------------|-------------------|-----------x-------|--------------||--------------------|-------------------|-----------x-------|--------------||--7/9---------------|-------------------|-----------x-------|--------------||--7/9---------------|-------------------|-----------x-------|--------------||--5/7---------------|-------------------|-------------------|--------------||--------------------|-------------------|-------------------|--------------| delay effect
verse- And now I wait my whole lifetime For you And now I wait my whole lifetime For you
|------------------|------------------|------------------|------------------||------------------|------------------|------------------|------------------||------------------|------------------|------------------|------------------||------------------|------------------|------------------|----4br-4br-4br---||------------------|------------------|------------------|------------------||------------------|------------------|------------------|------------------|
jamez does a volume swell|------------------|------------------|------------------|------------------||------------------|------------------|------------------|------------------||--7-9-------------|---9/---x---------|------------------|------------------||--7-9-------------|---9/---x---------|------------------|------------------||--5-7-------------|---7/---x---------|------------------|------------------||------------------|------------------|------------------|------------------|
|------------------|----------------------|---------------------||------------------|----------------------|---------------------||------------------|----------------------|--7/4-------------4/-||------------------|-------7br-7br-7br-7b-|--7/4-------------4/-||------------------|----------------------|--5/2-------------2/-||------------------|----------------------|---------------------|
volume swell verse(cont.) I ride the dirt I ride the tide For you I search the outside search inside For you To take back what you left me YOU know I'll always burn to be The one who seeks so I may find And now I wait my whole lifetime
|--------------------|--------------------|---------------------||--------------------|--------------------|---------------------||--------------------|--------------------|---------------------||--------------------|--------------------|--------------x-x-x--||--------------------|--------------------|--------------x-x-x--||--------------------|--------------------|--------------x-x-x--|
|----------------------------------|----------------------------||----------------------------------|----------------------------||----------------------------------|----------------------------||----------------------------------|--4br-------4br-----4-4br---||--5-7---7---5-7---5-7---5-7---7---|--5--5-5--5-5--5--5-5-5--5--||--0-0-0-0-0-0-0-0-0-0-0-0-0-0-0-0-|----------------------------|PM - - - - - -
I'm outlaw of torn!|----------------------------------|----------------------------||----------------------------------|----------------------------||----------------------------------|----------------------------||----------------------------------|--4br-------4br-----4-4br---||--5-7---7---5-7---5-7---5-7---7---|--5--5-5--5-5--5--5-5-5--5--||--0-0-0-0-0-0-0-0-0-0-0-0-0-0-0-0-|----------------------------|PM - - - - - -
|----------------------------------|----------------------------||----------------------------------|----------------------------||----------------------------------|----------------------------||----------------------------------|--4br-------4br-----4-4br---||--5-7---7---5-7---5-7---5-7---7---|--5--5-5--5-5--5--5-5-5--5--||--0-0-0-0-0-0-0-0-0-0-0-0-0-0-0-0-|----------------------------|PM - - - - - -
I'm outlaw of torn!|----------------------------------|----------------------------||----------------------------------|----------------------------||----------------------------------|----------------------------||----------------------------------|--4br-------4br-----4-4br---||--5-7---7---5-7---5-7---5-7---7---|--5--5-5--5-5--5--5-5-5--5--||--0-0-0-0-0-0-0-0-0-0-0-0-0-0-0-0-|----------------------------|PM - - - - - -
and I'm torn|--------------------|-------------------|--x-x---------------||--------------------|-------------------|--x-x---------------||--7-9---------------|----------------9/-|--------------------||--7-9---------------|----------------9/-|--------------------||--5-7---------------|----------------7/-|--------------------||--------------------|-------------------|--------------------| delay effect
verse2- So now I wait my whole lifetime For you So now I wait my whole lifetime For you
|----------------------|-----------------------|-------------------||----------------------|-----------------------|-------------------||----------------------|--7-9--------------x-x-|--x----------------||-------4br-4br-4br-4b-|--7-9--------------x-x-|--x----------------||----------------------|--5-7--------------x-x-|--x----------------||----------------------|-----------------------|-------------------| volume swell
verse2(cont.)- The more I search the more my need For you The more I bless the more I bleed For you You make me smash the clock and feel I'd rather die behind the wheel Time was never on my side So long I wait my whole lifetime
|--||---------------------------------------------------------------------------------||---------------------------------------------------------------------------------||-------7br-7br-7br-7b------------------------------------------------------------||---------------------------------------------------------------------------------||---------------------------------------------------------------------------------| volume swell
|-------------------|---------------------|---------------------||-------------------|---------------------|---------------------||--7-9--------------|--7-4-------------4/-|----4-2--------------||--7-9--------------|--7-4-------------4/-|----4-2--------------||--5-7--------------|--5-2-------------2/-|----2-0--------------||-------------------|---------------------|---------------------|
|---------------------|----------------------------------||---------------------|----------------------------------||----2-------------2/-|----------------------------------||----2-------------2/-|----------------------------------||----0-------------0/-|--5-7---7---5-7---5-7---5-7---7---||---------------------|--0-0-0-0-0-0-0-0-0-0-0-0-0-0-0-0-| PM - - - - - -
I'm outlaw of torn!|----------------------------|----------------------------------||----------------------------|----------------------------------||----------------------------|----------------------------------||--4br-------4br-----4-4br---|----------------------------------||--5--5-5--5-5--5--5-5-5--5--|--5-7---7---5-7---5-7---5-7---7---||----------------------------|--0-0-0-0-0-0-0-0-0-0-0-0-0-0-0-0-| PM - - - - - -
I'm outlaw of torn!|----------------------------|----------------------------------||----------------------------|----------------------------------||----------------------------|----------------------------------||--4br-------4br-----4-4br---|--------------5-----------5-------||--5--5-5--5-5--5--5-5-5--5--|--5-7-----------7-----------7-----||----------------------------|--0-0-0-0-0-0---0-0-0-0-0---0-0-0-| PM - - - - - - - - - -
I'm outlaw of torn!|----------------------------|----------------------------------||----------------------------|----------------------------------||----------------------------|----------------------------------||--4br-------4br-----4-4br---|--------------5-----------5-------||--5--5-5--5-5--5--5-5-5--5--|--5-7-----------7-----------7-----||----------------------------|--0-0-0-0-0-0---0-0-0-0-0---0-0-0-| PM - - - - - - - - - -
and I'm torn----------------------------------|----------------------------------|----------------------11/12-12-12-|--4br-------4br-------------------|--5--5-5--5-5--5--5/9-9/-10-10-10-|----------------------------------|
Hear me And if I close my mind in fear Please pry it open See me And if my face becomes sincere Beware Hold me And when I start to come undone Stitch me together Save me And when you see me strut Remind me of what left this outlaw torn
|-------------------------------||-------------------------------||--7-9--------------------------||--7-9-------------7--5-7-7-7---||--5-7-------------7--5-7-7-7---||-------0-0--0-0---5--3-5-5-5-0-|
|-----------------------------|--------------------------------------||-----------------------------|--------------------------------------||-----------------------------|--7-9--12-12-12-12-12/-7--------------||--5-7--7-7--7----------------|--7-9--12-12-12-12-12/-7-7--5-7-7-7---||--5-7--7-7--7---7-5--4-5--5--|--5-7------------------5-7--5-7-7-7---||--3-5--5-5--5-0-5-3--2-3--3--|-------------------------5--3-5-5-5-0-|
|---------------------------|-------------------------------||---------------------------|-------------------------------||---------------------------|--7-9-----------7--------------||--5-7---7--7---7/5---x-4---|--7-9-----------7-7--5-7-7-7---||--5-7---7--7---7/5---x-4---|--5-7-----------5-7--5-7-7-7---||--3-5---5--5-0-5/3---x-2---|-------0-0--0-0---5--3-5-5-5-0-|
|-----------------------------|--------------------------------------||-----------------------------|--------------------------------------||-----------------------------|--7-9--12-12-12-12-12/-7--------------||--5-7--7-7--7----------------|--7-9--12-12-12-12-12/-7-7--5-7-7-7---||--5-7--7-7--7---7-5--4-5--5--|--5-7------------------5-7--5-7-7-7---||--3-5--5-5--5-0-5-3--2-3--3--|-------------------------5--3-5-5-5-0-|
|---------------------------|-------------------|----------------------||---------------------------|-------------------|--------------------3-||---------------------------|-------------------|------------------0---||--5-7---7--7---7/5---x-4---|-------------------|----------------4-----||--5-7---7--7---7/5---x-4---|--2----------------|----------------------||--3-5---5--5-0-5/3---x-2---|--0----------------|----------------------|
jamez' volume swells w/ delay|----------------|------------------|----------------------||----------------|------------------|----------------------||----------------|------------------|----------------------||----------------|------------------|-----------5--7br--5--||----------------|------------------|--7~~~----------------||----------------|------------------|----------------------|
|--------------------|----------------------|--------------------||--------------------|----------------------|--------------------||--------------------|----------------------|--------------------||--------------------|-----------5--7br-5---|--------------------||--7~~~~~------/-----|--7~~-----------------|--7~~~~-------/-----||--------------------|----------------------|--------------------|
|--------------------------|----------------------------||--------------------------|----------------------------||------------12--14br-12---|-14br-14hb-----12--14br-12--||--14~---------------------|----------------------------||--------------------------|----------------------------||--------------------------|----------------------------|
(live on s&m)|----------------------------|--------------------|----------------------||----------------------------|------(15)----------|----------------------||---------------12--14br-12--|--14br--------------|----------------------||--14/12---------------------|--------------------|---------5--7------9--||----------------------------|--------------------|--7-------------------||----------------------------|--------------------|----------------------|
|---------------------|----------------------|---------------------||---------------------|----------------------|---------------------||---------------------|----------------------|---------------------||---------5-----------|---------5--7------9--|---------5-----------||--5---------7--------|--7-------------------|--5---------7--------||---------------------|----------------------|---------------------|
|----------------------|----------------------|----------------------||----------------------|----------------------|----------------------||----------------------|----------------------|----------------------||-------------------7--|--9----------------9--|--7----------------9--||---------5--5---------|---------5--5---------|---------3br-3--------||--7-------------------|----------------------|----------------------|
kirk's solo w/ wah & a slide|------------------------|------------------------------------||------------------------|------------------------------------||------------------------|------------------------------------||--7-----9--10---10--12--|------------------------------------||------------------------|--5-7---7---5-7---5-7---5-7---7-----||------------------------|--0-0-0-0-0-0-0-0-0-0-0-0-0-0-0-0---|
| PM - - - - - - || tremolo picking ||-----------------------|-------------------------------------||-----------------------|-12-12-12-12-12-12-12-12-12-12-12-12-||-----------------------|-12-12-12-12-12-12-12-12-12-12-12-12-||-----------------------|-12-12-12-12-12-12-12-12-12-12-12-12-||-----------------------|-------------------------------------||-----------------------|-------------------------------------|
|----------------------------|----------------------------------||----------------------------|----------------------------------||----------------------------|----------------------------------||--4br-------4br-----4-4br---|----------------------------------||--5--5-5--5-5--5--5-5-5--5--|--5-7---7---5-7---5-7---5-7---7---||----------------------------|--0-0-0-0-0-0-0-0-0-0-0-0-0-0-0-0-|
| PM - - - - - - ||tremolo pick stops here | ||---------------------------------------------------------------||--14b--------14b--------14b----14b---14b---14b--14b--14b-------||--14b--------14b--------14b----14b---14b---14b--14b--14b--12---||---------------------------------------------------------------||---------------------------------------------------------------||---------------------------------------------------------------|
|----------------------------|----------------------------------||----------------------------|----------------------------------||----------------------------|----------------------------------||--4br-------4br-----4-4br---|--------------5-----------5-------||--5--5-5--5-5--5--5-5-5--5--|--5-7-----------7-----------7-----||----------------------------|--0-0-0-0-0-0---0-0-0-0-0---0-0-0-|
| PM - - - - - - - - - - || use slide here | ||----------------------------15----12/------------17/-----------||------------------------------12/-----20/1/17-17-----14/12/10--||---------------------------------------------------------------||--14~--14~--14~--14~--14~--------------------------------------||---------------------------------------------------------------||---------------------------------------------------------------|
|----------------------------------|----------------------------------||----------------------------------|----------------------------------||----------------------11/12-12-12-|----------------------------------||--4br-------4br-------------------|--------------5-----------5-------||--5--5-5--5-5--5--5/9-9/-10-10-10-|--5-7-----------7-----------7-----||----------------------------------|--0-0-0-0-0-0---0-0-0-0-0---0-0-0-|
| PM - - - - - - - - - - || no slide | ||-10/-------------------------------------------------0h14h17-0h14h17-||-----8/19/-----------------------------------------------------------||------------0--------------12h14-------------12h14-------------------||------------0--------12h14-------------12h14-------------------------||---------------12h14-------------12h14-------------------------------||---------------------------------------------------------------------|
|--------------------------------------------------------------||--------------------------------------------------------------||--------------------------------------------------------------||--4br-------4br------4-4/5-5/7--------------------------------||--5--5-5--5-5--5--5-------------------------------------------||--------------------------------------------------------------|
| ||-------14h17-------17b-17~-17b-17b-17~-17b-17b/19-19b/22-22br-||-15h17-------15h17--------------------------------------------||--------------------------------------------------------------||--------------------------------------------------------------||--------------------------------------------------------------||--------------------------------------------------------------| end solo
Hear me And if I close my mind in fear Please pry it open See me And if my face becomes sincere Beware Hold me And when I start to come undone Stitch me together Save me And when you see me strut Remind me of what left this outlaw torn
|-------------------------------||-------------------------------||--7-9-----------7--------------||--7-9-----------7-7--5-7-7-7---||--5-7-----------5-7--5-7-7-7---||-------0-0--0-0---5--3-5-5-5-0-|
|-----------------------------|--------------------------------------||-----------------------------|--------------------------------------||-----------------------------|--7-9--12-12-12-12-12/-7--------------||--5-7--7-7--7----------------|--7-9--12-12-12-12-12/-7-7--5-7-7-7---||--5-7--7-7--7---7-5--4-5--5--|--5-7------------------5-7--5-7-7-7---||--3-5--5-5--5-0-5-3--2-3--3--|-------------------------5--3-5-5-5-0-|
|---------------------------|-------------------------------||---------------------------|-------------------------------||---------------------------|--7-9-----------7--------------||--5-7---7--7---7/5---x-4---|--7-9-----------7-7--5-7-7-7---||--5-7---7--7---7/5---x-4---|--5-7-----------5-7--5-7-7-7---||--3-5---5--5-0-5/3---x-2---|-------0-0--0-0---5--3-5-5-5-0-|
|-----------------------------|--------------------------------------||-----------------------------|--------------------------------------||-----------------------------|--7-9--12-12-12-12-12/-7--------------||--5-7--7-7--7----------------|--7-9--12-12-12-12-12/-7-7--5-7-7-7---||--5-7--7-7--7---7-5--5-5--5--|--5-7------------------5-7--5-7-7-7---||--3-5--5-5--5-3-5-3--2-3--3--|-------------------------5--3-5-5-5-0-|
|---------------------------|-------------------|-------------------||---------------------------|-------------------|-------------------||---------------------------|-------------------|-------------------||--5-7---7--7---7/5---x-4---|-------------------|-------------------||--5-7---7--7---7/5---x-4---|--3----------------|--3----------------||--3-5---5--5-0-5/3---x-2---|--0----------------|--0----------------|
| ||---------------------------|--0----------------|--0----------------||---------------------------|--0----------------|--0----------------||---------------------------|--0----------------|--0----------------||---------------------------|--3----------------|--3----------------||---------------------------|--3----------------|--3----------------||---------------------------|--0----------------|--0----------------| wah wah
|-------------------|-------------------|----------------------||-------------------|-------------------|----------------------||-------------------|-------------------|----------------------||-------------------|-------------------|------------5--7br--5-||--3----------------|-------------------|--7~~~----------------||--0----------------|-------------------|----------------------|
| volume swells ||--0----------------|-------------------|--0-------------------||--0----------------|-------------------|--0-------------------||--0----------------|-------------------|--0-------------------||--3----------------|-------------------|--3-------------------||--3----------------|-------------------|--3-------------------||--0----------------|-------------------|--0-------------------| wah wah
|--------------------|----------------------|---------------------||--------------------|----------------------|---------------------||--------------------|----------------------|---------------------||--------------------|------------5--7br--5-|--7br7b-----------7/-||--7~~~~-------/-----|--7~~~----------------|---------------------||--------------------|----------------------|---------------------|
| ||--0-----------------|---0------------------|------------------0--||--0-----------------|---0------------------|------------------0--||--0-----------------|---0------------------|------------------0--||--3-----------------|---3------------------|------------------3--||--3-----------------|---3------------------|------------------3--||--0-----------------|---0------------------|------------------0--| wah wah wah
outro|--------------------------------------------------------------||--------------------------------------------------------------||--------------------------------------------------------------||--------------------------------------------------------------||--------------------------------------------------------------||--0--/10-12---0-/10-12--0--/10--12--0--/10--12--12b---12--10--|
| ||----------------------------------------------------------0---||----------------------------------------------------------0---||----------------------------------------------------------0---||----------------------------------------------------------3---||----------------------------------------------------------3---||----------------------------------------------------------0---| wah
|--------------------------------------------------------------||--------------------------------------------------------------||--------------------------------------------------------------||--------------------------------------------------------------||------------------------------------------------12b--12---10--||--0--/10--12--0--/10-12-0--/10--12---0/10----12---------------|
| ||----------------------------------------------------------0---||----------------------------------------------------------0---||----------------------------------------------------------0---||----------------------------------------------------------3---||----------------------------------------------------------3---||----------------------------------------------------------0---| wah
|--------------------------------------------------------------------||--------------------------------------------------------------------||--------------------------------------------------------------------||--------------------------------------------------------------------||--------------------------------------------12b---12---10h12p10-----||-0-/10-12--0-/10-12--0-/10-12---0-/10--12---------------------------|
| ||--------------------------------|-----------------------------------||--------------------------------|-----------------------------------||--------------------------------|-----------------------------------||--2--------3--------4--------5--|--2--------3--------4--------5-----||--2--------3--------4--------5--|--2--------3--------4--------5-----||--0--------1--------2--------3--|--0--------1--------2--------3-----|
|-----------------------------------------------------------||-----------------------------------------------------------||-----------------------------------------------------------||-----------------------------------------------------------||-----------------------------------------------------------||-0-/10-12--0-/10-12--0-/10-12--0-/10-12-----12b--12---10~~~|
| ||----------------------------|------------------------------||----------------------------|------------------------------||----------------------------|------------------------------||--2--------3------4------5--|--2----3-----4-----5----------||--2--------3------4------5--|--2----3-----4-----5----------||--0--------1------2------3--|--0----1-----2-----3----------|
|----------------------------------------------------------||----------------------------------------------------------||----------------------------------------------------------||----------------------------------------------------------||--------------------------------------------12b---12--10--||-0-/10-12--0-/10-12--0-/10-12--0--/10---12----------------|
| ||-----------------------------------------------------------||-----------------------------------------------------------||-----------------------------------------------------------||-----------------------------------------------------------||--2--2--2---2--2---2--3--3--3---3-3---3--4--4--4---4--4--4-||--0--0--0---0--0---0--1--1--1---1-1---1--2--2--2---2--2--2-|
|---------------------||---------------------||---------------------||---------------------||---------------------||--12b-------12---10--|
| ||---------------------||---------------------||---------------------||---------------------||-5--5--5---5--5--5---||-3--3--3---3--3--3---|
|-----------------------------------------------------------------||-----------------------------------------------------------------||-----------------------------------------------------------------||-----------------------------------------------------------------||-------------------------------------10--10b-------10---12---10~~||-0--/10-12---0--/10--12---0-/10--12------------12----------------|
| ||----------------------------------|------------------------------||----------------------------------|------------------------------||----------------------------------|------------------------------||----------------------------------|------------------------------||--2--------3--------4--------5----|----2-------3----4--5---------||--0--------1--------2--------3----|----0-------1----2--3---------|
|--------------------------------------------------------------------||--------------------------------------------------------------------||--------------------------------------------------------------------||--------------------------------------------------------------------||---------------10b---------------------------10-12b-----12-10h12p10-||-/10--12-12-12-----12-----12----12-12-10--12------------------------|
| ||--------------------------------------------------------------------||--------------------------------------------------------------------||--------------------------------------------------------------------||--------------------------------------------------------------------||--2-2-2--2-2--2-3-3-3--3-3--3-4-4-4--4-4--4-5-5-5--5-5--5-----------||--0-0-0--0-0--0-1-1-1--1-1--1-2-2-2--2-2--2-3-3-3--3-3--3-----------|
|----------------------------------------------------------||----------------------------------------------------------||----------------------------------------------------------||----------------------------------------------------------||---------------10b-----------------10--12b---12---10h12---||-/10--12-12-12-----12--12-12-10-12------------------------|
| ||----------------------------------------------------------||----------------------------------------------------------||----------------------------------------------------------||----------------------------------------------------------||--2-2-2--2-2--2-3-3-3--3-3--3-4-4-4--4-4--4-5-5-5--5-5--5-||--0-0-0--0-0--0-1-1-1--1-1--1-2-2-2--2-2--2-3-3-3--3-3--3-|
|------------------------------------------------------------||----------------12b-----------------------------------------||----------------12b---------------------12-14b-14--12h14p12-||-/12--14--14-14------14---14-14--12--14---------------------||------------------------------------------------------------||------------------------------------------------------------|
| ||------------------------------------------------------------||------------------------------------------------------------||------------------------------------------------------------||------------------------------------------------------------||--2-2-2--2-2--2-3-3-3--3-3--3-4-4-4--4-4--4-5-5-5--5-5--5---||--0-0-0--0-0--0-1-1-1--1-1--1-2-2-2--2-2--2-3-3-3--3-3--3---|
|------------------------------------------------------------||--------------12b----------------------12-12b----12-14--12\-||--------------12b----------------------12-12b----12-14--12\-||-/12-14-14-14------14---14-14-h14---------14----------------||------------------------------------------------------------||------------------------------------------------------------|
| ||------------------------------------------------------------||------------------------------------------------------------||------------------------------------------------------------||------------------------------------------------------------||--2-2-2--2-2--2-3-3-3--3-3--3-4-4-4--4-4--4-5-5-5--5-5--5---||--0-0-0--0-0--0-1-1-1--1-1--1-2-2-2--2-2--2-3-3-3--3-3--3---|
|------------------------------------------------------------||------------------------------------------------------------||------------------------------------------------------------||------------------------------------------------------------||------------------------------------------------------------||-0--/10-12--0-/10--12--0-/10--12--0-/10-12--12b--12--10-----|
| ||------------------------------------------------------------||------------------------------------------------------------||------------------------------------------------------------||------------------------------------------------------------||--2-2-2--2-2--2-3-3-3--3-3--3-4-4-4--4-4--4-5-5-5--5-5--5---||--0-0-0--0-0--0-1-1-1--1-1--1-2-2-2--2-2--2-3-3-3--3-3--3---|
|----------------------------------------------------------------||----------------------------------------------------------------||----------------------------------------------------------------||----------------------------------------------------------------||---------------------------------------------10h12p10-----10-12-||-0-/10--12--0--/10-12---0-/10--12--0-/10--12----------12--------|
| ||----------------------------------------------------------------||----------------------------------------------------------------||----------------------------------------------------------------||----------------------------------------------------------------||--2-2-2--2-2--2-3-3-3--3-3--3-4-4-4--4-4--4-5-5-5--5-5--5-------||--0-0-0--0-0--0-1-1-1--1-1--1-2-2-2--2-2--2-3-3-3--3-3--3-------|
|------------------------------------------------------------||------------------------------------------------------------||------------------------------------------------------------||------------------------------------------------------------||------------------------------------------------------------||-0--/10-12--0-/10-12--0-/10-12--0-/10-12--12b-12--10--------|
| ||------------------------------------------------------------||------------------------------------------------------------||------------------------------------------------------------||------------------------------------------------------------||--2-2-2--2-2--2-3-3-3--3-3--3-4-4-4--4-4--4-5-5-5--5-5--5---||--0-0-0--0-0--0-1-1-1--1-1--1-2-2-2--2-2--2-3-3-3--3-3--3---|
|-------------------------------------------------------------------||-------------------------------------------------------------------||-------------------------------------------------------------------||-------------------------------------------------------------------||-----------------------------10-12--10b--12-10b----12-10b-12-10b---||-0-/10-12--0-/10-12--0/10-12-------------------------------------12|
| ||-------------------------------------------------------------------||-------------------------------------------------------------------||-------------------------------------------------------------------||-------------------------------------------------------------------||--2-2-2--2-2--2-3-3-3--3-3--3-4-4-4--4-4--4-5-5-5--5-5--5----------||--0-0-0--0-0--0-1-1-1--1-1--1-2-2-2--2-2--2-3-3-3--3-3--3----------|
|---------------------------------------------------------||---------------------------------------------------------||---------------------------------------------------------||---------------------------------------------------------||---------------------------------------------------------||--0-/10-12--0-/10-12--0-/10-12--0-/10-12--12b--12--10----|
| ||---------------------------------------------------------||---------------------------------------------------------||---------------------------------------------------------||---------------------------------------------------------||--2-2-2--2-2--2-3-3-3--3-3--3-4-4-4--4-4--4-5-5-5--5-5--5||--0-0-0--0-0--0-1-1-1--1-1--1-2-2-2--2-2--2-3-3-3--3-3--3|
|-------------------------------------------------------------------||-------------------------------------------------------------------||-------------------------------------------------------------------||-------------------------------------------------------------------||-------------------------------------------12b---12b-12b-12b---10~~||-0-/10-12---0-/10-12--0-/10-12--0-/10--12--------------------------|
| ||-------------------------------------------------------------------||-------------------------------------------------------------------||-------------------------------------------------------------------||-------------------------------------------------------------------||--2-2-2--2-2--2-3-3-3--3-3--3-4-4-4--4-4--4-5-5-5--5-5--5----------||--0-0-0--0-0--0-1-1-1--1-1--1-2-2-2--2-2--2-3-3-3--3-3--3----------|
|---------------------------------------------------------------||---------------------------------------------------------------||---------------------------------------------------------------||---------------------------------------------------------------||---------------------------------------------------------------||-0-/10-12--0-/10-12-0-/10-12--0-/10-12---12b--12---10~~~~~~----|
| ||---------------------------------------------------------------||---------------------------------------------------------------||---------------------------------------------------------------||---------------------------------------------------------------||--2-2-2--2-2--2-3-3-3--3-3--3-4-4-4--4-4--4-5-5-5--5-5--5------||--0-0-0--0-0--0-1-1-1--1-1--1-2-2-2--2-2--2-3-3-3--3-3--3------|
|---------------------------------------------------------------||---------------------------------------------------------------||---------------------------------------------------------------||---------------------------------------------------------------||-----------------------10-10-10b---------------------10--------||-0-/10-12--0-/10-12--0------------12-12-12--10-10-10-----h12-\-|
| ||---------------------------------------------------------------||---------------------------------------------------------------||---------------------------------------------------------------||---------------------------------------------------------------||--2-2-2--2-2--2-3-3-3--3-3--3-4-4-4--4-4--4-5-5-5--5-5--5------||--0-0-0--0-0--0-1-1-1--1-1--1-2-2-2--2-2--2-3-3-3--3-3--3------|
|---------------------------------------------------------------||---------------------------------------------------------------||-/12-12--------------------------------------------------------||-/12-12-14p12--------------------------------------------------||--------------14p12\10b~~~~~-------------10--12b--12--10h12p10-||----------------------------12\--/10-12------------------------|
| ||---------------------------------------------------------------||---------------------------------------------------------------||---------------------------------------------------------------||---------------------------------------------------------------||--2-2-2--2-2--2-3-3-3--3-3--3-4-4-4--4-4--4-5-5-5--5-5--5------||--0-0-0--0-0--0-1-1-1--1-1--1-2-2-2--2-2--2-3-3-3--3-3--3------|
|---------------------------------------------------------------||---------------------------------------------------------------||-/12-12--------------------------------------------------------||-/12-12-14p12--------------------------------------------------||--------------14p12\10b~~~-------------10--12b--12--10h12------||-------------------------12--12\-/10---------------------------|
| ||---------------------------------------------------------------||---------------------------------------------------------------||---------------------------------------------------------------||---------------------------------------------------------------||--2-2-2--2-2--2-3-3-3--3-3--3-4-4-4--4-4--4-5-5-5--5-5--5------||--0-0-0--0-0--0-1-1-1--1-1--1-2-2-2--2-2--2-3-3-3--3-3--3------|
starts to fade|-------------------------------------------------------------------||--------------12b-----------------------12-12-14---14--14-14--12---||--------------12b-----------------------12-12-14---14--14-14--12---||-/12-14-14-14-----14--14-14-12h14-14-14----------------------------||-------------------------------------------------------------------||-------------------------------------------------------------------|
| ||-------------------------------------------------------------------||-------------------------------------------------------------------||-------------------------------------------------------------------||-------------------------------------------------------------------||--2-2-2--2-2--2-3-3-3--3-3--3-4-4-4--4-4--4-5-5-5--5-5--5----------||--0-0-0--0-0--0-1-1-1--1-1--1-2-2-2--2-2--2-3-3-3--3-3--3----------|
|-------------------------------12-----------------------------------||--------------12b----------12-----12-x--x--12-12----12-12-12-12-12x-||--------------12b----------12-----12-x--x--12-12----12-12-12-12-12x-||-12-14--14-14-----14----14------------------------------------------||--------------------------------------------------------------------||-------------------------------------------------12-----------------|
| ||--------------------------------------------------------------------||--------------------------------------------------------------------||--------------------------------------------------------------------||--------------------------------------------------------------------||--2-2-2--2-2--2-3-3-3--3-3--3-4-4-4--4-4--4-5-5-5--5-5--5-----------||--0-0-0--0-0--0-1-1-1--1-1--1-2-2-2--2-2--2-3-3-3--3-3--3-----------|
|---------------------------------------------------------------||---------------------------------------------------------------||---------------------------------------------------------------||---------------------------------------------------------------||---------------------------------------------------------------||-0-/10-12--0-/10-12-0-/10-12--0-/10-12--12b-12---10------------|
| ||---------------------------------------------------------------||---------------------------------------------------------------||---------------------------------------------------------------||---------------------------------------------------------------||--2-2-2--2-2--2-3-3-3--3-3--3-4-4-4--4-4--4-5-5-5--5-5--5------||--0-0-0--0-0--0-1-1-1--1-1--1-2-2-2--2-2--2-3-3-3--3-3--3------|
|---------------------------------------------------------------||---------------------------------------------------------------||---------------------------------------------------------------||---------------------------------------------------------------||------------------------------------------12b--12--10~~~~~~----||--0-/10-12--0-/10-12-0-/10-12--0-/10--12-----------------------|
| ||---------------------------------------------------------------||---------------------------------------------------------------||---------------------------------------------------------------||---------------------------------------------------------------||--2-2-2--2-2--2-3-3-3--3-3--3-4-4-4--4-4--4-5-5-5--5~~~~~------||--0-0-0--0-0--0-1-1-1--1-1--1-2-2-2--2-2--2-3-3-3--3~~~~~------|
Tap to rate this tab
 
# A B C D E F G H I J K L M N O P Q R S T U V W X Y Z