Metallica - And Justice For All tab version 2

================================================================================
                               M E T A L L I C A

                                       -

                 . . . A N D   J U S T I C E   F O R   A L L
================================================================================


                             ...AND JUSTICE FOR ALL
                        (c) Elektra/Vertigo Records (1988)
                            http://www.metallica.com/


                                 Standard Tuning
                                   E A D G B E

                                  Tempo = 89 BPM
                            Time Signature = 3/4 (Varies)



                          -----------------------------
                                 Transcribed by

                                 PADDY MCMULLAN
                           pmtabs (@t) gmail [dot] com

                          Version 1.1 [5th October 2012]
                                  
                                   Date Tabbed
                                 1st October 2012
                             -----------------------

                             Tablature Symbols Used:


 (/)       -  Legato Slide (Blank space indicates length of slide)
 \         -  Slide Down to/Down From
 /         -  Slide Up to/Up From
 ( )       -  Ghost Note/Tied Note/Implied Note
 |--  --|  -  Rest and sustain rest for duration of blank space
 |_3_|     -  Triplet Notes
 ...       -  Palm Mute
 5b6       -  Bend
 6r5       -  Release Bend
 2b'       -  Quarter Bend
 13b;      -  Three Quarter Note Bend
 5~~       -  Vibrato (Whammy vibrato will be specified when required)
 <5>       -  Harmonics
 x         -  Dead Note/Muted Note
 %         -  Whammy Bar Articulation
 5h7       -  Hammer-On
 7p5       -  Pull-Off
 *         -  Staccato Notes (Bring the indicated note(s) to an abrupt end)
 |__[1,2]  -  Alternate Endings/Beginnings



================================================================================
Intro:                                                    [ Time 00:00 - 00:56 ]
================================================================================


[ Tempo = 46 BPM ]


----------------------
Guitars 1 & 2 (Clean): Guitar 2 joins in on the second repeat
----------------------


* Let ring *


|_3_| |_3_|||--------------------------------|-------------------------------|||--------------------------------|-------------------------------|||--------------------------------|-------------------------------|||--6-7-9---7-6h7p6 \4-5-5-4-7-4 \|--2-3-5---3-2h3p2 \0-2-2-0-2-0-|||--7-----7----------5-----5---5 \|--3-----3----------2-----2---2-|||--0-----------------------------|-------------------------------|
|____________________[1,2]|----------------------| ||----------------------| ||------------2---------|*||--0-2-2-0-2---3-------|*| x 4|--1-----1-----1-------| ||----------------------| |
|____________|_3_|_________________________[3,4]|-------------------------|------------------| ||------------------- --|-- --| ||------------------- --|-- --|*||--2-3-5---3-2h3p2-- --|-- --|*||--3-----3---------- --|-- --| ||-------------------------|------------------| |
----------------- Guitar 3 (Clean): ----------------- Rest for 6 bars
||--------------------------------|----------------------|-----------| |||---------------------*----------|---------------- --|-- --| |||---------9~~--------/7--7h9-7~~-|---------5~~---- --|-- --|*|||--6-7-/9-----9\-4-5-------------|--2-3-/5-----5-- --|-- --|*| x 2||--------------------------------|---------------- --|-- --| |||--------------------------------|----------------------|-----------| |
----------------- Guitar 4 (Clean): -----------------
||--------------------------------------|----------------------|||-----------------------*--------------|---------------- --|||----9-11-/13~~-11---7-/11--11h12-11~~-|----5-7-/9~~-7-- --|||--9---------------7-------------------|--5------------- --|||--------------------------------------|---------------- --|||--------------------------------------|----------------------|
|----------------| ||-- --| ||-- --|*||-- --|*| x 2|-- --| ||----------------| |
------------------------------------------------------------ Rhythm Guitars 1 & 2 (Distortion) w/ Lead Fill (Distortion): ------------------------------------------------------------ Rest for 7 bars
|___________________________[1]||---------------------------|----------------------------||-------------| |||-- --------------------|----------------------------||-- --| |||-- --------------------|-----------------2--3-------||-- --|*|||-- --0--2--2--0--2--0--|--0--2--2--0--2-----3-------||-- --|*| x 2||-- --2--2--2--2--2--2--|--1--1--1--1--1-----1-------||-- --| |||---------------------------|----------------------------||-------------| | ................ .............
|____________________________[2]|-----------------------------|||-----------------------------|||-----------------2--3---- /--|||--0--2--2--0--2-----3---- /--|||--1--1--1--1--1-----1---- /--|||-----------------------------|| .............
|_3_|||-----------------------------------------|||-----------------------------------------|||-----------------------------------------|||--6--7--9----7--6h7p6-4--5--5-4-4--7--4--|||--7--7--7----7--------5--5--5-5-5--5--5--|||-----------------------------------------| .... ... .................
|_3_||-----------------------------------------|----------------------------|||-----------------------------------------|----------------------------|||--------5--------------------------------|------------------2--3------|||--2--3--5----3--2h3p2-0--2--2-2-0--2--0--|--0--2--2-2-0--2-----3------|||--3--3--3----3--------2--2--2-2-2--2--2--|--1--1--1-1-1--1-----1------|||-----------------------------------------|----------------------------|| .... ... ................. ..............
[ Lead Fill ] Barely audible on the recording but present in the master track
||---------------------------|-----------------------------|----------------|||-- --------------------|-----------------------------|-- --|||-- --------------------|------------------2--3-------|-- --|||-- --0--2--2--0--2--0--|--0--2--2b'-0--2-----3-------|-- --|||-- --------------------|---------------------1-------|-- --|||---------------------------|-----------------------------|----------------| ... ...
|---------------------------|-----------------------------|||-- --------------------|-----------------------------|||-- --------------------|-----------------2--3---- /--|||-- --0--2--2--0--2--0--|--0--2--2--0--2-----3---- /--|||-- --------------------|--------------------1---- /--|||---------------------------|-----------------------------|| ... ... ... ...
--------------------------- Lead Guitar 1 (Distortion): ---------------------------
|_3_|||----------------------------------------|||----------------------------------------|||------------*---------------------------|||--6--7--9~~-7-6h7p6-4--5--5-5--0--7--0--|||----------------------------------------|||----------------------------------------| ...
|_3_||---------------------------------------|-------------------------------|||---------------------------------------|-------------------------------|||------------*--------------------------|------------------- /5---------|||--2--3--5~~-3-2h3p2-0--2--2-2-0--2--0--|--0--2--2-2--0--2-------3------|||---------------------------------------|-------------------------------|||---------------------------------------|-------------------------------|| ... ...
--------------------------- Lead Guitar 2 (Distortion): ---------------------------
||--------------------------------------------|||-------------*------------------------------|||-----9 /13~~-9----9\ ---7--11-11-7--11--7~~-|||--9-------------9----7----------------------|||--------------------------------------------|||--------------------------------------------| .....
|_3_||----------------------------------------|-------------------------------|||------------*---------------------------|-------------------------------|||-----5 /9~~-5--0h5p0-------4-4----4-----|--------3-3----3-- /5- /7------|||--5------------------0--2------2-----2--|--0--2------2------------------|||----------------------------------------|-------------------------------|||----------------------------------------|-------------------------------|| ... ...
--------------------------- Lead Guitar 3 (Distortion): ---------------------------
|_3_|||----------------------------------------|||----------------------------------------|||--------9~~-*--------------7-7----7-----|||--6--7------7--6h7p6-4--5------4-----4--|||----------------------------------------|||----------------------------------------|
... |_3_||---------------------------------------|-------------------------------|||---------------------------------------|-------------------------------|||--------5~~-*--------------4-4----4----|--------3-3-----3- /5- \3------|||--2--3------5--2h3p2-0--2------2-----2-|--0--2-------2-----------------|||---------------------------------------|-------------------------------|||---------------------------------------|-------------------------------|| ... ...
================================================================================ Part 1: [ Time 00:56 - 01:22 ] ================================================================================ [ Tempo = 89 BPM ] ---------------- Rhythm Guitar 1: ----------------
|__3__| |__3__| |_________7_________|| |-------------------------------|----------------------------------|| |--*-- -------- --------|----- -------------- --||4|--3-- -------- --------|----- -------------- --||/|--3-- -----*-- --------|--*-- -----------*-- --||4|--1-- --8--7-- --8--7--|--6-- --8--7--6--5-- --|| |----------6--5-----------6--5--|--4-----------6--5--4--3----------| ... .... ....... [1 2 3 4 5 6 7 ]
|---------------------------------||------------------------------- -||----------------------------*-- -||--3-2-0---2-0-----0-------3-2-- -||--------3-----3-2---3-2-0-3-2-- -||---------------------------------| ............. .......
|------------------------------|-------------------|------------------||------------------------------|-------------------|------------------||------------------------------|-------------------|------------------||--3--2--0-----2-0-----0-------|-------------------|------------------||--3--2--0--3--2-0-3-2-0-3-2-0-|--2----------------|--(2)-------------||-----------3------3-2---3-2-0-|--0----------------|--(0)-------------| ....... .....
| |---------------| |-------------------| |---------------|| |---------------| |-------------------| |---------------||3|---------------|4|-------------------|3|---------------||/|---------------|/|-------------------|/|---------------||4|--(2)----------|4|--(2)--------------|4|--(2)----------|| |--(0)----------| |--(0)--------------| |--(0)----------|
| |-------------------------||| |-------------------------|||4|-------------------------|||/|-------------------------|||4|--(2)------8-8-7--8-8-7--||| |--(0)------6-6-5--6-6-5--|| ... ...
---------------- Rhythm Guitar 2: ---------------- Play the same as Rhythm Guitar 1 except for the 3rd bar, which is as follows:
|----------------------------------------------||-------------------------------------------- -||--3--2--0-----2--0--------0--------------*-- -||-----------3--------3--2-----3--2--0--3--2-- -||--------------------------------------3--2-- -||----------------------------------------------| ................... ..........
================================================================================ Part 2: [ Time 01:22 - 02:01 ] ================================================================================ --------------------- Rhythm Guitars 1 & 2: ---------------------
| |-------------------------| |--------------------------------| || |-------------------------| |--------------------------------| ||3|-------------------------|4|--------------------------------|*||/|-------------------------|/|--------------------------------|*| x 4|4|-----5h7--7-5-----8-8-7--|4|-----5h7--7-5-----8-8-7--8-8-7--| || |--0------------7--6-6-5--| |--0------------7--6-6-5--6-6-5--| | ... ... ... ... ...
| |---------------| |----------------| |---------------| |---------------------|| |---------------| |----------------| |---------------| |---------------------||3|---------------|4|----------------|3|---------------|4|---------------------||/|---------------|/|--2-------------|/|---------------|/|--2------------------||4|--2------------|4|--0-------------|4|--2------------|4|--0-----------3-3-2--|| |--0------------| |----------------| |--0------------| |--------------1-1-0--| ...
| |-------------------------| |--------------------------------|| |-------------------------| |--------------------------------||3|-------------------------|4|--------------------------------||/|-------------------------|/|--------------------------------||4|-----5h7--7-5-----8-8-7--|4|-----5h7--7-5-----8-8-7--8-8-7--|| |--0------------7--6-6-5--| |--0------------7--6-6-5--6-6-5--| ... ... ... ... ...
| |-------------------------| |---------------------------------||| |-------------------------| |---------------------------------|||3|-------------------------|4|---------------------------------|||/|-------------------------|/|---------------------------------|||4|-----5h7--7-5-----8-8-7--|4|-----5h7--7-5-----8-8-7--5-5-4p0-||| |--0------------7--6-6-5--| |--0------------7--6-6-5--3-3-2p0-|| ... ... ... ... ...
--------------------------- Lead Guitar 1 (Distortion): ---------------------------
| |------------------------------------------------|| |- ---------------------------------------------||3|- -(11 b12)--(11b12r11b12r11)-----9------------||/|- -----------------------------------10-10-9~~-||4|- ---------------------------------------------|| |------------------------------------------------|
| |----------------------------------------------------------|| |----------------------------------------------------------||4|-----(11 b12)--(11b12r11b12r11)-----9---------------------||/|---------------------------------------10-10-7--10h12-9~~-||4|--0-------------------------------------------------------|| |----------------------------------------------------------| ...
| |-------------------------------------------------|| |-------------------------------------------------||3|-----(11 b12)--(11b12r11b12r11)-----9------------||/|--0------------------------------------10-10-9~--||4|-------------------------------------------------|| |-------------------------------------------------| ...
| |-------------------------------------------------------------||| |-------------------------------------------------------------|||4|-----(11 b12)--(11b12r11b12r11)-----9------------------------|||/|---------------------------------------10-10-9~~--10-10-9~~--|||4|--0----------------------------------------------------------||| |-------------------------------------------------------------|| ...
--------------------------- Lead Guitar 2 (Distortion): ---------------------------
| |-------------------------------------------------|| |- -(10 b12)--(10b12r10b12r10)----8---7--7-------||3|- -----------------------------------------9~~--||/|- ----------------------------------------------||4|- ----------------------------------------------|| |-------------------------------------------------|
| |------------------------------------------------------------|| |-----(10 b12)--(10b12r10b12r10)----8---7--7-------7h8-------||4|---------------------------------------------7~~-------9~~--||/|------------------------------------------------------------||4|--0---------------------------------------------------------|| |------------------------------------------------------------| ...
| |--------------------------------------------------|| |-----(10 b12)--(10b12r10b12r10)----8---7--7-------||3|---------------------------------------------9~~--||/|--0-----------------------------------------------||4|--------------------------------------------------|| |--------------------------------------------------| ...
| |-------------------------------------------------------------||| |-----(10 b12)--(10b12r10b12r10)----8---7--7------------------|||4|---------------------------------------------7~~-------------|||/|-------------------------------------------------------------|||4|--0-----------------------------------------------8--8--7- \-||| |-------------------------------------------------------------|| ...
================================================================================ Part 3: [ Time 02:01 - 02:31 ] ================================================================================ --------------------- Rhythm Guitars 1 & 2: ---------------------
| |----------------------| |-----------------------------|| |----------------------| |-----------------------------||3|----------------------|4|-----------------------------||/|----*----*------------|/|----*----*-------------------||4|----2--x-2--2--2-2-3--|4|----2--x-2--2 /8-8-7--8-8-7--|| |--0-0--x-0--0--0-0-1--| |--0-0--x-0--0 /6-6-5--6-6-5--| . ... . ... ...
| |----------------------| |-------------------------------|| |----------------------| |-------------------------------||3|----------------------|4|-------------------------------||/|----*----*------------|/|----*----*---------------------||4|----2--x-2--2--2-2-3--|4|----2--x-2--2 /8-8-7--7-8-8- \-|| |--0-0--x-0--0--0-0-1--| |--0-0--x-0--0 /6-6-5--5-6-6- \-| . ... . ... ...
[ Vocals Enter ]
|__________________________[1,3,4]| |-----------------------| |------------------------------| || |-----------------------| |------------------------------| ||3|-----------------------|4|------------------------------|*||/|----------*------------|/|----------*-------------------|*||4|----2-2-0-2--2--2-2-3--|4|----2-2-0-2--2 /8-8-7--8-8-7--| || |--0-0-0-0-0--0--0-0-1--| |--0-0-0-0-0--0 /6-6-5--6-6-5--| | . ... . ... ... ...
|________________________________[2]| |--------------------------------|| |--------------------------------||4|--------------------------------||/|----------*---------------------||4|----2-2-0-2--2 /8-8-7--7-8-8- \-|| |--0-0-0-0-0--0 /6-6-5--5-6-6- \-| . ... ... ...
| |--------------------------| || |--------------------------| ||2|--------------------------|4||/|--------------------------|/||4|-----7--7--------5--5--5--|4|| |--0--------0--0--------3--| | ......................
Halls of justice painted green Money talking Power wolves beset your door Hear them stalking Soon you'll please their appetite They devour Hammer of justice crushes you Overpower ================================================================================ Part 4: [ Time 02:31 - 02:57 ] ================================================================================ --------------------- Rhythm Guitars 1 & 2: ---------------------
||-------------------------------------------|||-------------------------------------------|||-------------------------------------------|||------------------(5 \4)-2-(4/5)---(4/5)--|||--4--4-4-4-4-4-4--(5 \4)-2-(4/5)---(4/5)--|||--2--2-2-2-2-2-2---------------------------| ...........
|------------------------------------------||------------------------------------------||------------------------------------------||--4---------------(5 \4)-2-(4/5)---(4/5)--||--4--4-4-4-4-4-4--(5 \4)-2-(4/5)---(4/5)--||-----2-2-2-2-2-2--------------------------| ...........
|--------------------------------------||--------------------------------------||-----------------------------------2--||--4---------------(5 \4)-2-(4/5)---2--||--4--4-4-4-4-4-4--(5 \4)-2-(4/5)------||-----2-2-2-2-2-2----------------------| ...........
|__3__| |__3__| |__3__| |__3__||------------------------------------------------------------| ||------------------------------------------------------------| ||--------------------(0 h5 h7)-------------------------------|*||------------------------------(0 h5 h7)---------------------|*| x 2|----4--4-4-4-4-4-4----------------------(0 h5 h7)-(0 h2 h3)-| ||----2--2-2-2-2-2-2------------------------------------------| | ...........
|__3__| |__3__| |__3__| |__3__||-----------------------------------------||-----------------------------------------||-(0 h5 h7)-------------------------------||-----------(0 h5 h7)---------------------||---------------------(0 h5 h7)-(0 h2 h3)-||-----------------------------------------|
|------------------------------------------|||------------------------------------------|||------------------------------------------|||------------------(3 \2)-0-(2/3)---(2/3)--|||--2--2-2-2-2-2-2--(3 \2)-0-(2/3)---(2/3)--|||--0--0-0-0-0-0-0--------------------------|| ...........
The ultimate in vanity Exploiting their supremacy I can't believe the things you say I can't believe, I can't believe the price You pay Nothing can save you ================================================================================ Part 5: [ Time 02:57 - 03:17 ] ================================================================================ --------------------- Rhythm Guitars 1 & 2: ---------------------
||--------------------| |------------|||--------------------| |------------|||--2-----------------|2|------------|||--2--------4--------|/|--5---------|||--0--------2--------|4|--3------3--|||--------------------| |---------1--|
| |------------------------------------------|| |------------------------------------------||4|------------------------------------------||/|------------------(3 \2)-0-(2/3)---(2/3)--||4|--2--2-2-2-2-2-2--(3 \2)-0-(2/3)---(2/3)--|| |--0--0-0-0-0-0-0--------------------------| ...........
|---------------------|------------------------------------------||---------------------|------------------------------------------||--2------------------|------------------------------------------||--2--------4---------|------------------(3 \2)-0-(2/3)---(2/3)--||--0--------2------3--|--2--2-2-2-2-2-2--(3 \2)-0-(2/3)---(2/3)--||------------------1--|--0--0-0-0-0-0-0--------------------------| ...........
|--------------------|----------------------|---------------------------|||--------------------|----------------------|---------------------------|||--2-----------------|----------------------|--0------------------------|||--2--------4--------|-----------5----------|--5------ /----------------|||--0--------2--------|--5--------3----------|--3------ /--8-8-7--8-8-7--|||--------------------|--3-------------------|--1------ /--6-6-5--6-6-5--|| ... ...
Justice is lost Justice is raped Justice is gone Pulling your strings Justice is done Seeking no truth Winning is all Find it so grim, so true, so real ================================================================================ Part 6: [ Time 03:17 - 03:27 ] ================================================================================ --------------------- Rhythm Guitars 1 & 2: ---------------------
| |-------------------------| |--------------------------------|| |-------------------------| |--------------------------------||3|-------------------------|4|--------------------------------||/|-------------------------|/|--------------------------------||4|-----5h7--7-5-----8-8-7--|4|-----5h7--7-5-----8-8-7--8-8-7--|| |--0------------7--6-6-5--| |--0------------7--6-6-5--6-6-5--| ... ... ... ... ...
| |-------------------------| |---------------------------------||| |-------------------------| |---------------------------------|||3|-------------------------|4|---------------------------------|||/|-------------------------|/|---------------------------------|||4|-----5h7--7-5-----8-8-7--|4|-----5h7--7-5-----8-8-7--5-5-4p0-||| |--0------------7--6-6-5--| |--0------------7--6-6-5--3-3-2p0-|| ... ... ... ... ...
================================================================================ Part 7: Repeat Part 3 [ Time 03:27 - 03:57 ] ================================================================================ Apathy their stepping stone So unfeeling Hidden deep animosity So deceiving Through your eyes their light burns Hoping to find Inquisition sinking you With prying minds ================================================================================ Part 8: Repeat Part 4 [ Time 03:57 - 04:23 ] ================================================================================ The ultimate in vanity Exploiting their supremacy I can't believe the things you say I can't believe, I can't believe the price You pay Nothing can save you ================================================================================ Part 9: Repeat Part 5 [ Time 04:23 - 04:44 ] ================================================================================ Justice is lost Justice is raped Justice is gone Pulling your strings Justice is done Seeking no truth Winning is all Find it so grim, so true, so real ================================================================================ Part 10: [ Time 04:44 - 05:05 ] ================================================================================ --------------------- Rhythm Guitars 1 & 2: ---------------------
| |-------------------------| |--------------------------------|| |-------------------------| |--------------------------------||3|-------------------------|4|--------------------------------||/|-------------------------|/|--------------------------------||4|-----5h7--7-5-----8-8-7--|4|-----5h7--7-5-----8-8-7--8-8-7--|| |--0------------7--6-6-5--| |--0------------7--6-6-5--6-6-5--| ... ... ... ... ...
| |-------------------------| |------------------|| |-------------------------| |------------------||3|-------------------------|2|------------------||/|-------------------------|/|------------------||4|-----5h7--7-5-----8-8-7--|4|-----5h7--7-5-----|| |--0------------7--6-6-5--| |--0------------7--| ... ... ...
|__3__| |__3__| |_________7_________|| |-------------------------------|----------------------------------|| |----- -------- --------|----- -------------- --||4|--*-- -------- --------|----- -------------- --||/|--8-- -----*-- --------|--*-- -----------*-- --||4|--8-- --8--7-- --8--7--|--6-- --8--7--6--5-- --|| |--6-------6--5-----------6--5--|--4-----------6--5--4--3----------|
... .... ....... [1 2 3 4 5 6 7 ]|---------------------------------||------------------------------- -||----------------------------*-- -||--3-2-0---2-0-----0-------3-2-- -||--------3-----3-2---3-2-0-3-2-- -||---------------------------------| ............. .......
|------------------------------||------------------------------||------------------------------||--3--2--0-----2-0-----0-------||--3--2--0--3--2-0-3-2-0-3-2-0-||-----------3------3-2---3-2-0-| ....... .....
|__3__| |__3__| |__3__| |__3__||---------------------------------------------------|||---------------------------------------------------|||-----------------------------------------(0 h5 h7)-|||-------------------------------(0 h5 h7)-----------|||--2--------(0 h2 h3)-(0 h5 h7)---------------------|||--0------------------------------------------------||
================================================================================ Guitar Solo: [ Time 05:05 - 05:55 ] ================================================================================ --------------------- Rhythm Guitars 1 & 2: ---------------------
||------------------------------------------|||------------------------------------------|||------------------------------------------|||------------------(3 \2)-0-(2/3)---(2/3)--|||--2--2-2-2-2-2-2--(3 \2)-0-(2/3)---(2/3)--|||--0--0-0-0-0-0-0--------------------------| ...........
|------------------------------------------||------------------------------------------||------------------------------------------||------------------(3 \2)-0-(2/3)---(2/3)--||--2--2-2-2-2-2-2--(3 \2)-0-(2/3)---(2/3)--||--0--0-0-0-0-0-0--------------------------| ...........
|--------------------------------------||--------------------------------------||--------------------------------------||------------------(3 \2)-0-(2/3)---5--||--2--2-2-2-2-2-2--(3 \2)-0-(2/3)---5--||--0--0-0-0-0-0-0----------------------|
........... |__3__| |__3__| |__3__| |__3__||------------------------------------------------------------| ||------------------------------------------------------------| ||--------------------(0 h5 h7)-------------------------------|*||------------------------------(0 h5 h7)---------------------|*| x 2|----2--2-2-2-2-2-2----------------------(0 h5 h7)-(0 h2 h3)-| ||----0--0-0-0-0-0-0------------------------------------------| | ...........
|__3__| |__3__| |__3__| |__3__||--------------------------------------------------------||--------------------------------------------------------||--(0 h5 h7)---------------------------------------------||------------(0 h5 h7)---------------------5-5-4--5-5-4--||----------------------(0 h5 h7)-(0 h2 h3)-3-3-2--3-3-2--||--------------------------------------------------------| ... ...
| |----------------------|-----------------------|----------------------|| |----------------------|-----------------------|----------------------||3|----------------------|-----------------------|----------------------||/|----*----*------------|----*----*-------------|----*----*------------||4|--2-4--2-4--4--2-4-5--|--2-4--2-4--4p0-2-2-5--|--2-4--2-4--4--2-4-5--|| |--0-2--0-2--2--0-2-3--|--0-2--0-2--2p0-0-0-3--|--0-2--0-2--2--0-2-3--| . . ... . . ... . . ...
| |------------------------------| || |------------------------------| ||4|------------------------------|*||/|----*----*------5-5-4--5-5-4--|*| x 2|4|--2-4--2-4--4---3-3-2--3-3-2--| || |--0-2--0-2--2-----------------| | . . ... ...
| |--------------------------------------------------|| |--------------------------------------------------||4|--------------------------------------------------||/|--------------------------------------------------||4|-----7--7--------5--5--5-----7--7--------5--5--5--|| |--0--------0--0--------3--0--------0--0--------3--| ..............................................
|--------------------------------------------------| |------------|||--------------------------------------------------| |----- --|||--------------------------------------------------|2|----- --|||-----------------------------------------2--2-----|/|--*-- --|||--7--5--5--------3--3--------3--3--2--2--2--2-----|4|--2-- --|||-----------0--0--------1--0--------0--0--------3--| |--0---------|| ..............................................
-------------- Lead Guitar 1: --------------
||------------------------------|---------------------------------------------|||------------------------------|---------------------------------------------|||--------9---12--11---9 \7 \| -5--4-4~~--(4h5p4)---4----------------------|||-- /9--(9)--------------------|--------------------7---7-5-3-(3h5p3)\2~-- /|||------------------------------|---------------------------------------------|||------------------------------|---------------------------------------------|
|----------------------------|----------------------------||----------------------------|--------------------- --||------9---12--11---9 \7 \| -5--4-4--4-5p4------ --|| /9--(9)--------------------|----------------5---- --||----------------------------|------------------7-- --||----------------------------|----------------------------|
|-----------------------------------|---------------------------------------||-----------------------------------|---------------------------------------||--------9---12--11---(9 h11p9\7)--|--------9--- /14--12---(11 h12p11\9)--||-- /9--(9)-------------------------|-- /9--(9)-----------------------------||-----------------------------------|---------------------------------------||-----------------------------------|---------------------------------------|
|__3___| |__3___| |__3___||-----------------------------------------------------------------||-----------------------------------------------------------------||--------9--- /16--(16p14p12)-(16p14p12)-(16p14p12\11)-(14p12p11)-||-- /9------------------------------------------------------------||-----------------------------------------------------------------||-----------------------------------------------------------------|
|__3___| |__3___| |__3___||-----------------------------------------------------------|--------------|||-------------------------------------------------- --|-- --|||-------------------------------------------------- --|-- --|||--(16p14p12)-(16p14p12)-(16p14p12\11)-(14p12p11)-- --|-- --|||-------------------------------------------------- --|-- --|||-----------------------------------------------------------|--------------||
| |--------------------------------14- -(17b || |--17-----17-14---------------------14-----||3|-(16b18)-x--14------14-(16b18)------------||/|----------------16------------------------||4|------------------------------------------|| |------------------------------------------|
|__3___| |__3___|| 19r18)--17-14-17p14-17p14----19p14-14-20p14-20p14----19p14-17-||---------------------------17----------------------17----------||---------------------------------------------------------------||---------------------------------------------------------------||---------------------------------------------------------------||---------------------------------------------------------------|
|--17p14-17p14- -14--14-------------------------------------||--------------17----(17b19r17b19)~~----14-(16b17)--(16b17)--||---------------------------------------14-(16b17)--(16b17)--||------------------------------------16----------------------||------------------------------------------------------------||------------------------------------------------------------|
Whammy vibrato| |-------------------------------------------------------------------||| |--(16b17r16)--(14h16)-(14h16)-16-(14b15r14)---------17-------------|||4|--(16b17r16)--(14h16)-(14h16)-16-(14b15r14)-----14-(16 b 18)~~-|||/|--------------------------16-----------------16--------------------|||4|-------------------------------------------------------------------||| |-------------------------------------------------------------------||
[ Wha pedal on ] |__3___|| |----------------------------------17-14-------------------------------------|| |--14-----14-17p14-- -----14-17p14-------17p14-15p14-- ----14-17p14----------||3|-(16b18)----------(16b18)--------------------------(16b18)---------16-14----||/|-------------------------------------------------------------------------16-||4|----------------------------------------------------------------------------|| |----------------------------------------------------------------------------|
|--------------------------------------------------------------------||-----0--14-17--(17b19r17)p14h17-17-(17b19r17)p14h17---(17b19r17)p14-||--14-16------------------------------------------------17b;---------||----------(0)----------------------------(0)------------------------||--------------------------------------------------------------------||--------------------------------------------------------------------|
|__3___||-----------------(17 b20)--(17b19)--------||--(17b19r17)p14---------------------------||-------------------------------------(16b ||--(0)-------------------------------------||------------------------------------------||------------------------------------------|
Hold bend| |--------------------------------------------|| |-----------*--*--*--*-------------(17b19)~~-||4| 18--18-18-18-18-18-18-18r16)--14-----------||/|--------------------------------------------||4|--------------------------------------------|| |--------------------------------------------|
[ Wha pedal off ]
|__3__| |_3___| |_3_| |__3__| |_3_| |__3__| |_3_||--22p19-0-0-21p17-0-0-0-18p15-15-0---0-17p14-0-0---0-||-----------------------------------------------------||-----------------------------------------------------||-----------------------------------------------------||-----------------------------------------------------||-----------------------------------------------------|
|__3__| |__3__| |__3__||--22p19-0-0---0-21p17p0-0-0-19-15-0-0-18p14-0-0-0-||--------------------------------------------------||--------------------------------------------------||--------------------------------------------------||--------------------------------------------------||--------------------------------------------------|
|--19p0-17p0-15p0-14p0-17p0-15p0-14p0-12p0-||----------------------------------(0)-----||------------------------------------------||------------------------------------------||------------------------------------------||------------------------------------------|
|__3___| |__3___| |__3___| |__3___||--15p0-14p0-12p0-10p0---------------------------------------------||----------------------(15p13p12)------------(15p13p12)---------0--||---------------------------------(14p12p11)------------(14p12h12)-||------------------------------------------------------------------||------------------------------------------------------------------||------------------------------------------------------------------|
% Steadily dive 4 steps| |---%---------||| |--<5>--------|||2|--<5>--------|||/|--<5>--------|||4|-------------||| |-------------||
================================================================================ Part 11: [ Time 05:55 - 06:22 ] ================================================================================ --------------------- Rhythm Guitars 1 & 2: ---------------------
| |-----------------------| |------------------------------|| |-----------------------| |------------------------------||3|-----------------------|4|------------------------------||/|----------*------------|/|----------*-------------------||4|----2-2-0-2--2--2-2-3--|4|----2-2-0-2--2 /8-8-7--8-8-7--|| |--0-0-0-0-0--0--0-0-1--| |--0-0-0-0-0--0 /6-6-5--6-6-5--| . ... ... . ... ... ...
| |-----------------------| |--------------------------------|| |-----------------------| |--------------------------------||3|-----------------------|4|--------------------------------||/|----------*------------|/|----------*---------------------||4|----2-2-0-2--2--2-2-3--|4|----2-2-0-2--2 /8-8-7--7-8-8- \-|| |--0-0-0-0-0--0--0-0-1--| |--0-0-0-0-0--0 /6-6-5--5-6-6- \-| . ... ... . ... ... ...
| |-----------------------| |------------------------------|| |-----------------------| |------------------------------||3|-----------------------|4|------------------------------||/|----------*------------|/|----------*-------------------||4|----2-2-0-2--2--2-2-3--|4|----2-2-0-2--2 /8-8-7--8-8-7--|| |--0-0-0-0-0--0--0-0-1--| |--0-0-0-0-0--0 /6-6-5--6-6-5--| . ... ... . ... ... ...
| |-----------------------| |------------------------------|| |-----------------------| |------------------------------||3|-----------------------|4|------------------------------||/|----------*------------|/|----------*-------------------||4|----2-2-0-2--2--2-2-3--|4|----2-2-0-2--2 /8-8-7--8-8-7--|| |--0-0-0-0-0--0--0-0-1--| |--0-0-0-0-0--0 /6-6-5--6-6-5--| . ... ... . ... ... ...
|------------------------------| |----------------------------------|||------------------------------| |----------------------------------|||------------------------------|7|----------------------------------|||------------------------------|/|----------------------------------|||--7-7-5--7-7-5--5-5-4--5-5-4--|8|--4-4-4--4-4-4--3--3--3--3--3--3--|||--5-5-3--5-5-3--3-3-2--3-3-2--| |--2-2-2--2-2-2--1--1--1--1--1--1--|| ... ... ... ... ... ... .............
During the last 2 bars the tempo gradually decreases to around 46 BPM, then increases slightly to 50 BPM during the first bar of the next part. ================================================================================ Interlude: [ Time 06:22 - 07:25 ] ================================================================================ --------------------- Rhythm Guitars 1 & 2: ---------------------
|_3_|| |----------------------------------------|| |----------------------------------------||3|----------------------------------------||/|--6--7--9----7--6h7p6-4--5--5--4--7--4--||4|--7--7--7----7--------5--5--5--5--5--5--|| |----------------------------------------| .... ... ................
|_3_||----------------------------------------|-----------------------------| ||----------------------------------------|-----------------------------| ||----------------------------------------|-----------------2--3--------|*||--2--3--5----3--2h3p2-0--2--2--0--2--0--|--0--2--2--0--2-----3--------|*| x 3|--3--3--3----3--------2--2--2--2--2--2--|--1--1--1--1--1-----1--------| ||----------------------------------------|-------------------------2/ -| | .... ... ................ .............
||----------------|----------------|----------------|------------------|||----------------|----------------|----------------|------------------|||--9------7------|--5------4------|--3------3------|--9----9--7----7--|||--9------7------|--5------4------|--3------3------|--9----9--7----7--|||--7------5------|--3------2------|--1------1------|--7----7--5----5--|||----------------|----------------|----------------|--7----7--5----5--|
|------------------|-------------------|------------------------------------||------------------|-------------------|------------------------------------||--5----5--4----4--|--3----3--3----3 / |--9----------9-----7----------7-----||--5----5--4----4--|--3----3--3----3 / |--9----------9-----7----------7-----||--3----3--2----2--|--1----1--1----1 / |--7----0--0--7--0--5----0--0--5--0--||--3----3--2----2--|--1----1--1----1 / |--7----0--0--7--0--5----0--0--5--0--| .... ... .... ...
|------------------------------------||------------------------------------||--5----------5-----4----------4-----||--5----------5-----4----------4-----||--3----0--0--3--0--2----0--0--2--0--||--3----0--0--3--0--2----0--0--2--0--| .... ... .... ...
| |--------------------------------------------------| || |-------------*- ------------*- ------------*- -| ||9|--3----------3- -3----------3- -3----------3- -|4||/|--3----------3- -3----------3- -3----------3- -|/||8|--1----0--0--1- -1----0--0--1- -1----0--0--1- -|4|| |--1----0--0--1----1----0--0--1----1----0--0--1----| | .... .... ....
-------------- Lead Guitar 1: -------------- Rest for 3 bars
|_3_| |_3_|| |--------------------------------------|---------------------------------------|| |--------------------------------------|---------------------------------------||3|------------*-------------------------|------------*--------------------------||/|--6--7--9~~-7-6h7p6-4--5--5--4--7--4--|--2--3--5~~-3--2h3p2-0--2--2--0--2--0--||4|--------------------------------------|---------------------------------------|| |--------------------------------------|---------------------------------------| ... ...
|---------------------------| ||---------------------------| ||-----------------2---------|*||--0--2--2--0--2-----3------|*| x 4|---------------------------| ||---------------------------| | ...
-------------- Lead Guitar 2: -------------- Rest for 6 bars
| |-----------------------------------|-----------------------------------|| |------------------------*----------|-----------------------------------||3|-----------9~~----------7--7h9-7~~-|----------5~~----------4-----4-----||/|--6--7 /9------9\ 4--5/ -----------|--2--3 /5-----5--0--2-----2-----2--||4|-----------------------------------|-----------------------------------|| |-----------------------------------|-----------------------------------|
|----------------------------| ||----------------------------| ||--------3-----3- /5-3~~-----|*||--0--2-----2----------------|*| x 3|----------------------------| ||----------------------------| |
-------------- Lead Guitar 3: -------------- Rest for 9 bars
| |-----------------------------------------|-------------------------------|| |------------9~~-----------*--------------|-----------5~~-----------------||3|-----9 /11------11-----7 /11--11h12-11~~-|-----5 /7------7-------4---4---||/|--9-----------------7--------------------|--5---------------0--2---2---2-||4|-----------------------------------------|-------------------------------|| |-----------------------------------------|-------------------------------|
|------------------------------|||------------------------------|||--------3-----3- /5- /7~~-----|||--0--2-----2------------------|||------------------------------|||------------------------------||
================================================================================ Part 12: [ Time 07:25 - 07:45 ] ================================================================================ [ Tempo = 89 BPM ] --------------------- Rhythm Guitars 1 & 2: ---------------------
| |-----------|-----------| |----------| |----------|| |-----------|-----------| |----------| |----------||4|-----------|-----------|3|----------|4|----------||/|-----------|-----------|/|----------|/|----------||4|--2--------|--(2)------|4|--(2)-----|4|--(2)-----|| |--0--------|--(0)------| |--(0)-----| |--(0)-----|
| |-------------------------| |--------------------------------|| |-------------------------| |--------------------------------||3|-------------------------|4|--------------------------------||/|-------------------------|/|--------------------------------||4|-----5h7--7-5-----8-8-7--|4|-----5h7--7-5-----8-8-7--8-8-7--|| |--0------------7--6-6-5--| |--0------------7--6-6-5--6-6-5--| ... ... ... ... ...
| |-------------------------| |---------------------------------||| |-------------------------| |---------------------------------|||3|-------------------------|4|---------------------------------|||/|-------------------------|/|---------------------------------|||4|-----5h7--7-5-----8-8-7--|4|-----5h7--7-5-----8-8-7--5-5-4p0-||| |--0------------7--6-6-5--| |--0------------7--6-6-5--3-3-2p0-|| ... ... ... ... ...
================================================================================ Part 13: [ Time 07:45 - 08:08 ] ================================================================================ --------------------- Rhythm Guitars 1 & 2: ---------------------
|__________________________[1,3,4]| |-----------------------| |------------------------------| || |-----------------------| |------------------------------| ||3|-----------------------|4|------------------------------|*||/|----------*------------|/|----------*-------------------|*||4|----2-2-0-2--2--2-2-3--|4|----2-2-0-2--2 /8-8-7--8-8-7--| || |--0-0-0-0-0--0--0-0-1--| |--0-0-0-0-0--0 /6-6-5--6-6-5--| | . ... . ... ... ...
|________________________________[2]| |--------------------------------|| |--------------------------------||4|--------------------------------||/|----------*---------------------||4|----2-2-0-2--2 /8-8-7--7-8-8- \-|| |--0-0-0-0-0--0 /6-6-5--5-6-6- \-| . ... ... ...
|--------------------------------------------------|||--------------------------------------------------|||--------------------------------------------------|||--------------------------------------------------|||-----7--7--------5--5--5-----7--7--------5--5--5--|||--0--------0--0--------3--0--------0--0--------3--|| ..............................................
Lady justice has been raped Truth assassin Rolls of red tape seal your lips Now you're done in Their money tips her scales again Make your deal Just what is truth? I cannot tell Cannot feel ================================================================================ Part 14: Repeat Part 4 [ Time 08:08 - 08:34 ] ================================================================================ The ultimate in vanity Exploiting their supremacy I can't believe the things you say I can't believe, I can't believe the price We pay Nothing can save us ================================================================================ Part 15: Repeat Part 5 [ Time 08:34 - 08:51 ] ================================================================================ Justice is lost Justice is raped Justice is gone Pulling your strings Justice is done Seeking no truth Winning is all Find it so grim, so true, so real ================================================================================ Outro: [ Time 08:51 - 09:46 ] ================================================================================ --------------------- Rhythm Guitars 1 & 2: ---------------------
| |---------------| |-----------------| |---------------| |-----------------|| |---------------| |-----------------| |---------------| |-----------------||3|---------------|4|-----------------|3|---------------|4|-----------------||/|---------------|/|--2--------------|/|---------------|/|--2--------------||4|--2------------|4|--0--------------|4|--2------------|4|--0--------------|| |--0------------| |-----------------| |--0------------| |-----------------|
| |---------------| |--------------------|----------------------|| |---------------| |--------------------|----------------------||3|---------------|4|--2-----------------|----------------------||/|---------------|/|--2--------4--------|-----------5----------||4|--2------------|4|--0--------2--------|--5--------3----------|| |--0------------| |--------------------|--3-------------------|
|---------------------------| |---------------| |-------------------||---------------------------| |---------------| |-------------------||--0------------------------|3|---------------|4|-------------------||--5------ /----------------|/|---------------|/|--2----------------||--3------ /--8-8-7--8-8-7--|4|--2------------|4|--0----------------||--1------ /--6-6-5--6-6-5--| |--0------------| |-------------------| ... ...
| |---------------| |-------------------| |---------------|---------------|| |---------------| |-------------------| |---------------|---------------||3|---------------|4|-------------------|3|---------------|---------------||/|---------------|/|--2----------------|/|---------------|--7------------||4|--2------------|4|--0----------------|4|--2------------|--5------------|| |--0------------| |-------------------| |--0------------|---------------|
|---------------|------------------|---------------|---------------||---------------|------------------|---------------|---------------||---------------|------------------|---------------|---------------||--4------------|--2------------*--|---------------|--7------------||--2------------|--0--------5-5-4--|--2------------|--5------------||---------------|-----------3-3-2--|--0------------|---------------| ...
|------------------|------------------|------------------|||------------------|------------------|-- ---------|||---------------*--|------------------|-- ---------|||--4--------4-4-2--|--2------------*--|-- ------*--|||--2--------2-2-0--|--0--------5-5-4--|-- --5-4-2--|||------------------|-----------3-3-2--|-----------3-2-0--|| ... ... ...
-------------- Lead Guitar 1: --------------
| |---------------------------------------------|| |- ------------------------------------------||3|- -(11 b12)--(11b12r11b12r11)--9------------||/|- --------------------------------10-10-9~~-||4|- ------------------------------------------|| |---------------------------------------------|
| |--------------------------------------------------------|| |--------------------------------------------------------||4|-----(11 b12)--(11b12r11b12r11)--9----------------------||/|------------------------------------10-10-----10-12-9~~-||4|--0---------------------------------------12------------|| |--------------------------------------------------------| ...
| |----------------------------------------------|| |----------------------------------------------||3|-----(11 b12)--(11b12r11b12r11)--9------------||/|------------------------------------10-10-9~~-||4|--0-------------------------------------------|| |----------------------------------------------| ...
| |--------------------------------------------------------|| |--------------------------------------------------------||4|-----(11 b12)--(11b12r11b12r11)--9----------------------||/|------------------------------------10-10-----10-12-9~~-||4|--0---------------------------------------12------------|| |--------------------------------------------------------| ...
| |----------------------------------------------| |------------|--------------|| |----------------------------------------------| |------------|--------------||3|-----(11 b12)--(11b12r11b12r11)--9------------|4|------------|--------------||/|------------------------------------10-10-9---|/|--(9)-------|--(9)---------||4|--0-------------------------------------------|4|------------|--------------|| |----------------------------------------------| |------------|--------------| ...
|-------------------| |------------------------------||-- --| |------------------------------||-- --|3|------------------------------||-- --|/|------------------------------||-- --|4|----9h10--10-9- \7------------||-------------------| |--------------------8--8--7~~-| ....
| |----------------------------------------| |------------------------------|| |----------------------------------------| |------------------------------||4|----------------------------------------|3|------------------------------||/|----------------------------------------|/|------------------------------||4|----9h10--10-9- \7----------------------|4|----9h10--10-9- \7------------|| |--x-----------------8--7--5~~-7--8--7~~-| |--x-----------------8--8--7~~-| .... .... ....
| |----------------------------------------||| |----------------------------------------|||4|----------------------------------------|||/|----------------------------------------|||4|----9h10--10-9- \7----------------------||| |--x-----------------8--7--5~~-7--8--7~~-|| .... ....
| |----------------------------------------------|| |- -------------------------------------------||3|- --(11 b12)--(11b12r11b12r11)--9------------||/|- ---------------------------------10-10-9---||4|- -------------------------------------------|| |----------------------------------------------|
|----------------------------------------------||----------------------------------------------||-----(11 b12)--(11b12r11b12r11)--9------------||------------------------------------10-10-7---||--0-------------------------------------------||----------------------------------------------| ...
|----------------------------------------------||----------------------------------------------||-----(11 b12)--(11b12r11b12r11)--9------------||------------------------------------10-10-9---||--0-------------------------------------------||----------------------------------------------| ...
|----------------------------------------------------| ||----------------------------------------------------| ||-----(11 b12)--(11b12r11b12r11)--9------------------|*||------------------------------------(10 h12p10\9)~~-|*| x 2|--0-------------------------------------------------| ||----------------------------------------------------| | ...
||----------------------------------------------||||----------------------------------------------||||-----(11 b12)--(11b12r11b12r11)--9------------||||------------------------------------10-10-9\ -||||--0-------------------------------------------||||----------------------------------------------|| ...
-------------- Lead Guitar 2: --------------
| |-------------------------------------------------|| |- -(10 b12)--(10b12r10b12r10)----8---7--7-------||3|- -----------------------------------------9~~--||/|- ----------------------------------------------||4|- ----------------------------------------------|| |-------------------------------------------------|
| |-----------------------------------------------------------|| |-----(10 b12)--(10b12r10b12r10)----8---7--7------7h8-------||4|---------------------------------------------7~~------9~~--||/|-----------------------------------------------------------||4|--0--------------------------------------------------------|| |-----------------------------------------------------------| ...
| |-------------------------------------------------|| |----(10 b12)--(10b12r10b12r10)----8---7--7-------||3|--------------------------------------------9~~--||/|-------------------------------------------------||4|--0----------------------------------------------|| |-------------------------------------------------| ...
| |-----------------------------------------------------------|| |-----(10 b12)--(10b12r10b12r10)----8---7--7------7h8-------||4|---------------------------------------------7~~------9~~--||/|-----------------------------------------------------------||4|--0--------------------------------------------------------|| |-----------------------------------------------------------| ...
| |-------------------------------------------------| |-----------|------------|| |----(10 b12)--(10b12r10b12r10)----8---7--7-------| |-----------|------------||3|--------------------------------------------9~~--|4|--(9)------|--(9)-------||/|-------------------------------------------------|/|-----------|------------||4|--0----------------------------------------------|4|-----------|------------|| |-------------------------------------------------| |-----------|------------| ...
|-------------------| |---------------------------||-- --| |- ------------------------||-- --|3|- ------------------------||-- --|/|- -7h9--9-7---------------||-- --|4|- -----------10--9-9--7~~-||-------------------| |---------------------------| ...
| |------------------------------------| |---------------------------|| |------------------------------------| |---------------------------||4|------------------------------------|3|---------------------------||/|----7h9--9-7------------------------|/|----7h9--9-7---------------||4|--------------10--9-7------7-10-7~~-|4|--------------10--9-9--7~~-|| |--x-------------------10~~----------| |--x------------------------| ... ...
| |------------------------------------||| |------------------------------------|||4|------------------------------------|||/|----7h9--9-7------------------------|||4|--------------10--9-7------7-10-7~~-||| |--x-------------------10~~----------|| ...
| |-------------------------------------------------|| |- -(10 b12)--(10b12r10b12r10)----8---7--7-------||3|- -----------------------------------------9~~--||/|- ----------------------------------------------||4|- -------------------------------
Tap to rate this tab
 
# A B C D E F G H I J K L M N O P Q R S T U V W X Y Z