Michael Angelo Batio - Rain Forest tab

Michael Angelo Batio
Rain Forest
Tuning - half step down

Not the full song sorry ,will finish.Listen to song to 
hear how the notes should be played.Should be quite 
accurate

Legend-
h = hammer on
p = pull off
b = bend (target note in brackets)
v = vibrato (more v's longer note is held)
t = tap

Intro pm-- pm pm|------------------------------------------------------||------------------------------------------------------||---------------------1--1h2-1-------------------------||--------2--2h3-2--------------------------------------||--2-------------------------------2--2h3-2------------||--0--0------------0------------0------------1--4--1---|
|------------------------------------------------------||------------------------------------------------------||----------------0-1-2-1-------------------------------||---------0-2-3----------3-2-0-------------------------||--0-2-3------------------------3-2-0---------0-2-3-4--||--------------------------------------1-4-1-----------|
|------------------------------------------------------||------------------------------------------------------||------------------------------------------------------||------------------------------------------------------||-----------4-3-2-0------------------------------------||--4-4-0-4----------5vvv-------------------------------|
Part after clean rythmn guitar|------------------------------------------------------||--15b(17)-15-13-15vvv--13----------------13p12--------||--------------------------16-12----12-16-------14vv---||--------------------------------14--------------------||------------------------------------------------------||------------------------------------------------------|
|--------12v--15-12------------------------------------||-----13------------12-15-17vv--17h18p17---------------||--14------------------------------------14vvv---------||------------------------------------------------------||------------------------------------------------------||------------------------------------------------------|
|--17-19-20vvv--22-17-19vv-19----19v--17-15-13---------||-----------------------------20---------------12------||-------------------------------------------------9-10-||------------------------------------------------------||------------------------------------------------------||------------------------------------------------------|
|------------------------------------------------------||------------------------------------------------------||--9-----------------------------2h10h5-------2h10h5h2-||----10-9vv--------------------------------------------||-------------------------3h12h7-------3h12h7----------||------------4h12h74h12h7------------------------------|
t t t t t t|----------------------11h17h14--------11h17h14--------||-3h13h9h3h13h9-----------------6h13h9----------10h19h-||--------------2h10h5----------------------------------||------------------------------------------------------||------------------------------------------------------||------------------------------------------------------|
t t t t t t t|--------------11h17h14--------11h17h14-16h21h17h16h17-||--15h19h10h15-----------------------------------------||----------------------9h15h12-------------------------||------------------------------------------------------||------------------------------------------------------||------------------------------------------------------|
t t t t t |--19-19-17-19-20vvv-----------------------------------||---------------------13-12-15-13-15vvvv---------------||------------------------------------------------------||------------------------------------------------------||------------------------------------------------------||------------------------------------------------------|
Main Theme|------------------------------------------------------||-----17-17----15-15----13----13----13/17v-----17-17---||--14-------14-------14----14----14---------14-------14||------------------------------------------------------||------------------------------------------------------||------------------------------------------------------|
|-------------------------------16h19h24---------------||--15-15----13/17v-----------17--------------------17--||--------14---------------16--------------------16-----||----------------------17--------------------17--------||-------------------19--------------------19-----------||------------------------------------------------------|
t|--16h19h24--------------16h19vvvvv--------------------||---------------------17-------------------------------||------------------16----------------------------------||---------------17-------------------------------------||------------19----------------------------------------||------------------------------------------------------|
|------------------------------------------------------||------------------------------------------------------||----------------0-1-2-1-------------------------------||---------0-2-3----------3-2-0-------------------------||--0-2-3------------------------3-2-0---------0-2-3-4--||--------------------------------------1-4-1-----------|
|------------------------------------------------------||------------------------------------------------------||------------------------------------------------------||------------------------------------------------------||-----------4-3-2-0------------------------------------||--4-4-0-4----------5vvv-------------------------------|
Tap to rate this tab
 
# A B C D E F G H I J K L M N O P Q R S T U V W X Y Z