Michael Boardman - Taken tab

Taken
Pagan's Mind
Enigmatic : Calling
DADGBE-Drop D
Transcribed By: Tod Allgemeinen

Guitar: Jorn Viggo Lofstad
Vocals: Nils K. Rue
Bass:   Steinar Krokmo
Drums:  Stian Kristoffersen
Keyboard/Synth: Ronny Tegner

0:15|--------||--------||--------||-4-2-0--||-4-2-0--||-4-2-0--|
0:22|--------------------------------------------------------||--------------------------------------------------------||--------------------------------------------------------||------4-5-7-0-8-0-9-7-5---7-5-4-----5-4-----4-----------||----4---------------------------5-------6---2-----------||-0------------------------------------------------------|
0:32|-------------------------------------------------------------------------------||-------------------------------------------------------------------------------||-------------------------------------------------------------------------------||-4-2-0-4-2-0-4-2-0-4-2-0--5-2-0-5-2-0-5-2-0-5-2-0--6-2-0-6-2-0-6-2-0-6-2-0-----||-4-2-0-4-2-0-4-2-0-4-2-0--5-2-0-5-2-0-5-2-0-5-2-0--6-2-0-6-2-0-6-2-0-6-2-0-----||-4-2-0-4-2-0-4-2-0-4-2-0--5-2-0-5-2-0-5-2-0-5-2-0--6-2-0-6-2-0-6-2-0-6-2-0-----|
|----------------------------------------||----------------------------------------||----------------------------------------||-7-2-0-7-2-0-4-2-0-5-2-0-6-2-0-7-2-0----||-7-2-0-7-2-0-4-2-0-5-2-0-6-2-0-7-2-0----||-7-2-0-7-2-0-4-2-0-5-2-0-6-2-0-7-2-0----|
0:45|-------------------------------------------------------------------------------||-------------------------------------------------------------------------------||-------------------------------------------------------------------------------||-4-2-0-4-2-0-4-2-0-4-2-0--5-2-0-5-2-0-5-2-0-5-2-0--6-2-0-6-2-0-6-2-0-6-2-0-----||-4-2-0-4-2-0-4-2-0-4-2-0--5-2-0-5-2-0-5-2-0-5-2-0--6-2-0-6-2-0-6-2-0-6-2-0-----||-4-2-0-4-2-0-4-2-0-4-2-0--5-2-0-5-2-0-5-2-0-5-2-0--6-2-0-6-2-0-6-2-0-6-2-0-----|
|---------------------------||---------------------------||---------------------------||-7-2-0-7-2-0-7-2-0-4-2-0---||-7-2-0-7-2-0-7-2-0-4-2-0---||-7-2-0-7-2-0-7-2-0-4-2-0---|
|-------------------------------------------------------------------------------||-------------------------------------------------------------------------------||-------------------------------------------------------------------------------||-4-2-0-4-2-0-4-2-0-4-2-0--5-2-0-5-2-0-5-2-0-5-2-0--6-2-0-6-2-0-6-2-0-6-2-0-----||-4-2-0-4-2-0-4-2-0-4-2-0--5-2-0-5-2-0-5-2-0-5-2-0--6-2-0-6-2-0-6-2-0-6-2-0-----||-4-2-0-4-2-0-4-2-0-4-2-0--5-2-0-5-2-0-5-2-0-5-2-0--6-2-0-6-2-0-6-2-0-6-2-0-----|
|---------------------------||---------------------------||---------------------------||-7-2-0-7-2-0-7-2-0-4-2-0---||-7-2-0-7-2-0-7-2-0-4-2-0---||-7-2-0-7-2-0-7-2-0-4-2-0---|
|--------------------------------------------------------||--------------------------------------------------------||--------------------------------------------------------||------4-5-7-0-8-0-9-7-5---7-5-4-----5-4-----4-----------||----4---------------------------5-------6---2-----------||-0------------------------------------------------------|
|------------------------------------------------------------------------||------------------------------------------------------------------------||------------------------------------------------------------------------||-4-6--------------------------------------------------------------------||-2-4--------------------------------------------------------------------||------0-0-0-0-0-0-0-0000000-0-0-0-0-2-4-0-2-4-0-2-4-0-2-4-0-2-4---------|
|------------------------------------------------------------------------||------------------------------------------------------------------------||------------------------------------------------------------------------||-6-8--------------------------------------------------------------------||-4-6--------------------------------------------------------------------||------0-0-0-0-0-0-0-0000000-0-0-0-0-2-4-0-2-4-0-2-4-0-2-4-0-2-4---------|
|--------------||--------------||-4------3-----||-4------1-----||-2------1-----||--------------|
|------------------------------------------------------------------------||------------------------------------------------------------------------||------------------------------------------------------------------------||-4-6--------------------------------------------------------------------||-2-4--------------------------------------------------------------------||------0-0-0-0-0-0-0-0000000-0-0-0-0-2-4-0-2-4-0-2-4-0-2-4-0-2-4---------|
|------------------------------------------------------------------------||------------------------------------------------------------------------||------------------------------------------------------------------------||-6-8--------------------------------------------------------------------||-4-6--------------------------------------------------------------------||------0-0-0-0-0-0-0-0000000-0-0-0-0-2-4-0-2-4-0-2-4-0-2-4-0-2-4---------|
Chorus|----------------------------------||----------------------------------||-6------8-----6----8--------------||-6------6-----6----6----3-----6---||-4------6-----4----6----3-----6---||------------------------3-----6---|x2
|---------------------------------------||---------------------------------------||-6-6-6--6-6--6-6-6---8-8-8-------||-4-4-4--4-4--4-4-4---6-6-6-------||-4-4-4--4-4--4-4-4---6-6-6-------||-4-4-4--4-4--4-4-4---6-6-6-------|X2
|--------||--------||--------||-3---5--||-1---3--||--------|
|---------------------------------||---------------------------------||-6-6-6--6-6--6-6-6---8-8-8-------||-4-4-4--4-4--4-4-4---6-6-6-------||-4-4-4--4-4--4-4-4---6-6-6-------||-4-4-4--4-4--4-4-4---6-6-6-------|
|----------------------||----------------------||-------------4--------||-3---5-------4--------||-1---3-------2--------||----------------------|
|-------------------------------------------------------------------------------||-------------------------------------------------------------------------------||-------------------------------------------------------------------------------||-4-2-0-4-2-0-4-2-0-4-2-0--5-2-0-5-2-0-5-2-0-5-2-0--6-2-0-6-2-0-6-2-0-6-2-0-----||-4-2-0-4-2-0-4-2-0-4-2-0--5-2-0-5-2-0-5-2-0-5-2-0--6-2-0-6-2-0-6-2-0-6-2-0-----||-4-2-0-4-2-0-4-2-0-4-2-0--5-2-0-5-2-0-5-2-0-5-2-0--6-2-0-6-2-0-6-2-0-6-2-0-----|
|----------------------------------------||----------------------------------------||----------------------------------------||-7-2-0-7-2-0-4-2-0-5-2-0-6-2-0-7-2-0----||-7-2-0-7-2-0-4-2-0-5-2-0-6-2-0-7-2-0----||-7-2-0-7-2-0-4-2-0-5-2-0-6-2-0-7-2-0----|
|----------------------------------------------------||----------------------------------------------------||----------------------------------------------------||-1-1---1-1--1-1--1-1--1-1---1-1-1-1-1---1-1-1-1-1---||-1-1---1-1--1-1--1-1--1-1---1-1-1-1-1---1-1-1-1-1---||-3-3---3-3--3-3--3-3--3-3---3-3-3-3-3---3-3-3-3-3---|
|-------------------------------------||-------------------------------------||-6------8-----6----8---------------||-6------6-----6----6----3-----6---||-4------6-----4----6----3-----6---||--------------------------3-----6---| X2
|---------------------------------------||---------------------------------------||-6-6-6--6-6--6-6-6---8-8-8-------||-4-4-4--4-4--4-4-4---6-6-6-------||-4-4-4--4-4--4-4-4---6-6-6-------||-4-4-4--4-4--4-4-4---6-6-6-------|
|---------||---------||---------||-3---5--||-1---3--||---------|
|---------------------------------------||---------------------------------------||-6-6-6--6-6--6-6-6---8-8-8-------||-4-4-4--4-4--4-4-4---6-6-6-------||-4-4-4--4-4--4-4-4---6-6-6-------||-4-4-4--4-4--4-4-4---6-6-6-------|
|----------------------------------------------------------||----------------------------------------------------------||-------------------------------------------------------4--||-3------------3-----------5-----------5----------------4--||-1----1--1----1--1--1-----3---3--3----3---3--3---------2--||------1--1-------1--1---------3--3--------3--3------------| . . . . . . . .
Solo~~~ Haven't Figured out the solo yet.. anyone figures it out please tell me.
|-------||-------||-------||-4-----||-4-----||-2-----|
|------------------------------------------------------------------------||------------------------------------------------------------------------||------------------------------------------------------------------------||-4-6--------------------------------------------------------------------||-2-4--------------------------------------------------------------------||------0-0-0-0-0-0-0-0000000-0-0-0-0-2-4-0-2-4-0-2-4-0-2-4-0-2-4---------|
|------------------------------------------------------------------------||------------------------------------------------------------------------||------------------------------------------------------------------------||-4-6--------------------------------------------------------------------||-2-4--------------------------------------------------------------------||------0-0-0-0-0-0-0-0000000-0-0-0-0-2-4-0-2-4-0-2-4-0-2-4-0-2-4---------|
|----------------||----------------||-4------3------||-4------1------||-2------1------||----------------|
|------------------------------------------------------------------------||------------------------------------------------------------------------||------------------------------------------------------------------------||-4-6--------------------------------------------------------------------||-2-4--------------------------------------------------------------------||------0-0-0-0-0-0-0-0000000-0-0-0-0-2-4-0-2-4-0-2-4-0-2-4-0-2-4---------|
|----------------------------||----------------------------||--------6--------6--8-8-----||--------4--------4--6-6-----||-444444-4-444444-4--6-6-----||----------------------------| ...... ......
|------------------------------------------------------||------------------------------------------------------||--------6--------6--8-8-------------------------------||--------4--------4--6-6-------------------------------||-444444-4-444444-4--6-6-------------------------------||---------------------------33-333-33-33-55-555-55-555-|x2 ...... ...... .. ... .. .. .. ... .. ...
|---------------------------------||---------------------------------||-6-6-6--6-6--6-6-6---8-8-8-------||-4-4-4--4-4--4-4-4---6-6-6-------||-4-4-4--4-4--4-4-4---6-6-6-------||-4-4-4--4-4--4-4-4---6-6-6-------|
|---------||---------||---------||-3---5---||-1---3---||---------|
|---------------------------------||---------------------------------||-6-6-6--6-6--6-6-6---8-8-8-------||-4-4-4--4-4--4-4-4---6-6-6-------||-4-4-4--4-4--4-4-4---6-6-6-------||-4-4-4--4-4--4-4-4---6-6-6-------|
|----------------------------------------------------------||----------------------------------------------------------||-------------------------------------------------------4--||-3------------3-----------5-----------5----------------4--||-1----1--1----1--1--1-----3---3--3----3---3--3---------2--||------1--1-------1--1---------3--3--------3--3------------|. ..........................................................
|-------------------------------------------------------------------------------||-------------------------------------------------------------------------------||-------------------------------------------------------------------------------||-4-2-0-4-2-0-4-2-0-4-2-0--5-2-0-5-2-0-5-2-0-5-2-0--6-2-0-6-2-0-6-2-0-6-2-0-----||-4-2-0-4-2-0-4-2-0-4-2-0--5-2-0-5-2-0-5-2-0-5-2-0--6-2-0-6-2-0-6-2-0-6-2-0-----||-4-2-0-4-2-0-4-2-0-4-2-0--5-2-0-5-2-0-5-2-0-5-2-0--6-2-0-6-2-0-6-2-0-6-2-0-----|
|-------------------------||-------------------------||-------------------------||-7-2-0-7-2-0-7-2-0-4-2---||-7-2-0-7-2-0-7-2-0-4-2---||-7-2-0-7-2-0-7-2-0-4-2---|
|-------------------------------------------------------------------------------||-------------------------------------------------------------------------------||-------------------------------------------------------------------------------||-4-2-0-4-2-0-4-2-0-4-2-0--5-2-0-5-2-0-5-2-0-5-2-0--6-2-0-6-2-0-6-2-0-6-2-0-----||-4-2-0-4-2-0-4-2-0-4-2-0--5-2-0-5-2-0-5-2-0-5-2-0--6-2-0-6-2-0-6-2-0-6-2-0-----||-4-2-0-4-2-0-4-2-0-4-2-0--5-2-0-5-2-0-5-2-0-5-2-0--6-2-0-6-2-0-6-2-0-6-2-0-----|
|---------------------------------||---------------------------------||---------------------------------||-7-2-0-7-2-0-7-2-0-7-2-0--4-2-0--||-7-2-0-7-2-0-7-2-0-7-2-0--4-2-0--||-7-2-0-7-2-0-7-2-0-7-2-0--4-2-0--|
|-----------------------------------------------------------------------------------||-----------------------------------------------------------------------------------||-----------------------------------------------------------------------------------||-4-2-0-4-2-0-4-2-0-4-2-0----5-2-0-5-2-0-5-2-0-5-2-0----6-2-0-6-2-0-6-2-0-6-2-0-----||-4-2-0-4-2-0-4-2-0-4-2-0----5-2-0-5-2-0-5-2-0-5-2-0----6-2-0-6-2-0-6-2-0-6-2-0-----||-4-2-0-4-2-0-4-2-0-4-2-0----5-2-0-5-2-0-5-2-0-5-2-0----6-2-0-6-2-0-6-2-0-6-2-0-----|
|-------------------------||-------------------------||-------------------------||-7-2-0-7-2-0-7-2-0-4-2---||-7-2-0-7-2-0-7-2-0-4-2---||-7-2-0-7-2-0-7-2-0-4-2---|
|-------------------------------------------------------------------------------||-------------------------------------------------------------------------------||-------------------------------------------------------------------------------||-4-2-0-4-2-0-4-2-0-4-2-0--5-2-0-5-2-0-5-2-0-5-2-0--6-2-0-6-2-0-6-2-0-6-2-0-----||-4-2-0-4-2-0-4-2-0-4-2-0--5-2-0-5-2-0-5-2-0-5-2-0--6-2-0-6-2-0-6-2-0-6-2-0-----||-4-2-0-4-2-0-4-2-0-4-2-0--5-2-0-5-2-0-5-2-0-5-2-0--6-2-0-6-2-0-6-2-0-6-2-0-----||---------------------------------||---------------------------------||---------------------------------||-7-2-0-7-2-0-7-2-0-7-2-0--4-2-0--||-7-2-0-7-2-0-7-2-0-7-2-0--4-2-0--||-7-2-0-7-2-0-7-2-0-7-2-0--4-2-0--|
|-------------------------------------------------------||-------------------------------------------------------||-------------------------------------------------------||------4-5-7-0-8-0-9-7-5---7-5-4-----5-4----------------||----4---------------------------5-------6--4-----------||-0-----------------------------------------------------|
|-------------------------------------||-------------------------------------||---------(5)----(5)------(6)---------||-(4)-----(3)----(3)--(0)-(4)---------||-(2)-----(3)----(3)--(0)-(4)---------||---------------------(0)-(4)---------|
Tap to rate this tab
 
# A B C D E F G H I J K L M N O P Q R S T U V W X Y Z