Michael Lucarelli - Malaguena tab

 Malagueña by Michael Lucarelli  

  http://www.lucarelli.com

   Tabs: Fimmel & Luke

E||-----0-----0-----0--|-----0-----0-----0--|-----0-----0-----0--|B||-----0-----0-----0--|-----0-----0-----0--|-----1-----1-----1--|G||-----1-----1-----1--|-----1-----1-----1--|-----2-----2-----2--|D||--------------------|--------------------|--------------------|A||--------------2-----|--------------2-----|--0-----3-----2-----|E||--0-----4-----------|--0-----4-----------|--------------------|
-----0-----0-----0--|-----0-----0-----0--|-----0-----0-----0--|-----1-----0-----0--|-----0-----0-----0--|-----0-----0-----0--|-----2-----2-----2--|-----1-----1-----1--|-----1-----1-----1--|--------------------|--------------------|--------------------|--0-----------------|--------------2-----|--------------2-----|--------3-----1-----|--0-----4-----------|--0-----4-----------|
-----0-----0-----0--|-----0-----0-----0--|-----1-----1-----1--|-----1-----1-----1--|-----2-----2-----2--|-----2-----2-----2--|--------------------|--------------------|--0-----3-----2-----|--0-----------------|--------------------|--------3-----1-----|
-----0-----0-----0--|-----0-----0-----0--|-----0-----0-----0--|-----0-----0-----0--|-----0-----0-----0--|-----0-----0-----0--|-----1-----1-----1--|-----1-----0-----0--|-----1-----1-----1--|-----1-----1-----1--|-----2-----2-----2--|-----2-----2-----2--|--------------------|--------------------|--------------------|--0-----2-----3-----|--------------2-----|--------------2-----|--0-----2-----3-----|--------------------|--0-----4-----------|--0-----4-----------|--------------------|--------------------|
--------0----0----|-----0-----0-----0--|-----0-----0-----0--|---------------------||--------0----0----|--------3-----3-----|--------1-----1-----|---------------------||*-------1----1----|--------4-----4-----|--------2-----2-----|--------------------*||*-----------------|--------------------|--------------------|--------0h2---5p3---*||------------------|--------------------|--0-----------------|--2h3----------------||---0--------------|--0-----------------|--------------------|---------------------||
--------0----0----|-------0--4/-7----|----------5--8----|-------7-----5-----|--------0----0----|------------------|-------5----------|----------8-----6--|*-------1----1----|-------7----------|-------5----------|-------7-----5-----|*--2--------------|------------------|------------------|-------------------|------------------|------------------|------------------|-------------------|---0--------------|--0---------------|--0---------------|--0----------------|
-----0-----------0--|-----------------0--|-----------------0--|--------------0-----|-----6--------6-----|-----6--------6-----|-----------7--------|-----------7--------|-----------5--------|--------6-----------|--------6-----------|--------7-----------|--------------------|--------------------|--------------------|--0-----------------|--0-----------------|--0-----------------|
---------------------||-------0----0----|--------------------|-----3--1-----0------||-------0----0----|--------------------|--4--------2-----2--*||-------1----1----|--------------------|--0-----2-----3-----*||-----------------|--------------------|---------------------||-----------------|-----------------2--|---------------------||--0--------------|--0h-1h-2h-3h-4-----|
|-----0-----0-----0--|-----0-----0-----0--|-----0-----0-----0--||-----0-----0-----0--|-----0-----0-----0--|-----1-----1-----1--||-----1-----1-----1--|-----1-----1-----1--|-----2-----2-----2--||--------------------|--------------------|--------------------||--------------2-----|--------------2-----|--0-----3-----2-----||--0-----4-----------|--0-----4-----------|--------------------|
-----0-----0-----0--|-----1-----0-----0--|-----2-----2-----2--|--------------------|--0-----------------|--------3-----1-----|
-----0-----0-----0--|-----0-----0-----0--|-----0-----0-----0--|-----0-----0-----0--|-----0-----0-----0--|-----0-----0-----0--|-----1-----1-----1--|-----1-----1-----1--|-----1-----1-----1--|-----1-----1-----1--|-----2-----2-----2--|-----2-----2-----2--|--------------------|--------------------|--------------------|--------------------|--------------2-----|--------------2-----|--0-----3-----2-----|--0-----------------|--0-----4-----------|--0-----4-----------|--------------------|--------3-----1-----|
-----0-----0-----0--|-----0-----0-----0--|-----0-----0-----0--|-----0-----0-----0--|-----0-----0-----0--|-----0-----0-----0--|-----1-----1-----1--|-----1-----0-----0--|-----1-----1-----1--|-----1-----1-----1--|-----2-----2-----2--|-----2-----2-----2--|--------------------|--------------------|--------------------|--0-----2-----3-----|--------------2-----|--------------2-----|--0-----2-----3-----|--------------------|--0-----4-----------|--0-----4-----------|--------------------|--------------------|
|------------0----|--0----0---------|--1----0---------|-----------------||-----------------|--1---------3----|--1---------1----|--3----3----1----||-----------------|--2---------L----|--2---------L----|--0---------L----||-----------------|-----------------|-----------------|--0---------L----||-----------------|--0---------L----|--0---------L----|-----------------||-----------------|-----------------|-----------------|--3---------L----|
--0--------------|-----------------|-----------------|-----------------|--0----1----0----|--1----1----0----|--3----1----0----|-----------------|--0---------L----|--2---------L----|--2---------L----|--1----1----2----|-----------------|--3---------L----|--3---------L----|--2---------L----|-----------------|-----------------|-----------------|--2---------L----|--3---------L----|--1---------L----|--1---------L----|--0---------L----|
-----------0----|--5----5----4----|--3----1----0----|--3----3----2----|--0-------------|-----------------|-----------------|-----------------|----------------|-----------------|-----------------|-----------------|--L-------------|-----------------|-----------------|-----------------|--L-------------|--0---------L----|--0---------L----|-----------------|--L-------------|-----------------|-----------------|--3---------L----|
--1----0---------|--1----1----0----|-----------------|--0----0---------|------------3----|-----------------|--3----1----3----|------------4----|-----------------|-----------------|-----------------|-----------------|-----------------|-----------------|-----------------|-----------------|-----------------|-----------------|-----------------|-----------------|--3---------L----|--1---------L----|--1---------L----|--0---------L----|
-----------------|-----------------|-----------------|-----------------|--3----1----0----|--1----1----1----|--1----3----1----|--0----0----0----|-----------------|-----------------|-----------------|-----------------|-----------------|-----------------|-----------------|-----------------|-----------------|--0---------L----|--0---------L----|-----------------|--0---------L----|-----------------|-----------------|--3---------L----|
v
-----------------|-----------------|-----------------|--0------------|--0--------------|-------0----1----|--3----1----3----|--0------------|-------2----0----|--2--------------|-----------------|--1------------|-----------------|-----------------|-----------------|--2------------|-----------------|-----------------|-----------------|--2------------|--3---------L----|--1---------L----|--1---------L----|--0------------|
|----0---0---0--|----0----0---0--|----0---0---0--|----0----0----||----------0----|-----------0----|------1---0----|--------------||------1--------|------1---------|--2------------|--2---0-------||--2------------|--2-------------|---------------|-----------3--||---------------|----------------|---------------|--------------||---------------|----------------|---------------|--------------|
|----0---0---0--|----0----0---0--|----0---0---0--|----0----0----||----------0----|-----------0----|------1---0----|--------------||------1--------|------1---------|--2------------|--2---0-------||--2------------|--2-------------|---------------|-----------3--||---------------|----------------|---------------|--------------||---------------|----------------|---------------|--------------|
T T T T T T T T T|----0---0---0--|----0----0---0--|----0---0---0--|----0----0----||----------0----|-----------0----|------1---0----|--------------||------1--------|------1---------|--2------------|--2---0-------||--2------------|--2-------------|---------------|-----------3--||---------------|----------------|---------------|--------------||---------------|----------------|---------------|--------------|
T T T T T T T T T T T T|----0---0---0--|----0----0---0--|----0---0---0--|----0---0---0-|----0----0---0-||----------0----|-----------0----|------0---1----|------0---1---|--3---1----3---||---------------|------1---------|--2------------|--2-----------|---------------||--2---1--------|--2-------------|---------------|--------------|---------------||---------------|----------------|---------------|--------------|---------------||---------------|----------------|---------------|--------------|---------------|
|-----0-----0-----0--|-----0-----0-----0--|-----0-----0-----0--||-----0-----0-----0--|-----0-----0-----0--|-----1-----1-----1--||-----1-----1-----1--|-----1-----1-----1--|-----2-----2-----2--||--------------------|--------------------|--------------------||--------------2-----|--------------2-----|--0-----3-----2-----||--0-----4-----------|--0-----4-----------|--------------------|
-----0-----0-----0--|-----1-----0-----0--|-----2-----2-----2--|--------------------|--0-----------------|--------3-----1-----|
-----0-----0-----0--|-----0-----0-----0--|-----0-----0-----0--|-----0-----0-----0--|-----0-----0-----0--|-----0-----0-----0--|-----1-----1-----1--|-----1-----1-----1--|-----1-----1-----1--|-----1-----1-----1--|-----2-----2-----2--|-----2-----2-----2--|--------------------|--------------------|--------------------|--------------------|--------------2-----|--------------2-----|--0-----3-----2-----|--0-----------------|--0-----4-----------|--0-----4-----------|--------------------|--------3-----1-----|
-----0-----0-----0--|-----0-----0-----0--|-----0-----0-----0--|-----0-----0-----0--|-----0-----0-----0--|-----0-----0-----0--|-----1-----1-----1--|-----1-----0-----0--|-----1-----1-----1--|-----1-----1-----1--|-----2-----2-----2--|-----2-----2-----2--|--------------------|--------------------|--------------------|--0-----2-----3-----|--------------2-----|--------------2-----|--0-----2-----3-----|--------------------|--0-----4-----------|--0-----4-----------|--------------------|--------------------|
T T T T T T T T T T T T---12-----4-----7---|---12-----4-----7---|---5------8-----7---|---5----3-----1-----|--------------------|--------------------|--------------------|--------------------|--------------------|--------------------|--------------------|--------------------|--------------------|--------------------|--------------------|--------------------|--------------------|--------------------|---0----------------|--------------------|---0----------------|---0----------------|--------------------|--------------------|
T T T T T T T T T T T T---12-----4-----7---|---12-----4-----7---|---5------8-----7---|---5----3-----1-----|--------------------|--------------------|--------------------|--------------------|--------------------|--------------------|--------------------|--------------------|--------------------|--------------------|--------------------|--------------------|--------------------|--------------------|---0----------------|--------------------|---0----------------|---0----------------|--------------------|--------------------|
T T T T T T T T T T T T---12-----4-----7---|---12-----4-----7---|---5------7-----8---|---10---12----13----|--------------------|--------------------|--------------------|--------------------|--------------------|--------------------|--------------------|--------------------|--------------------|--------------------|--------------------|--------------------|--------------------|--------------------|---0----------------|--------------------|---0----------------|---0----------------|--------------------|--------------------|
|-----0-----0-----0--|-----0-----0-----0--|-----0-----0-----0--||-----0-----0-----0--|-----0-----0-----0--|-----1-----1-----1--||-----1-----1-----1--|-----1-----1-----1--|-----2-----2-----2--||--------------------|--------------------|--------------------||--------------2-----|--------------2-----|--0-----3-----2-----||--0-----4-----------|--0-----4-----------|--------------------|
-----0-----0-----0--|-----0-----0-----0--|-----0-----0-----0--|-----1-----0-----0--|-----0-----0-----0--|-----0-----0-----0--|-----2-----2-----2--|-----1-----1-----1--|-----1-----1-----1--|--------------------|--------------------|--------------------|--0-----------------|--------------2-----|--------------2-----|--------3-----1-----|--0-----4-----------|--0-----4-----------|
-----0-----0-----0--|-----0-----0-----0--|-----1-----1-----1--|-----1-----1-----1--|-----2-----2-----2--|-----2-----2-----2--|--------------------|--------------------|--0-----3-----2-----|--0-----------------|--------------------|--------3-----1-----|
-----0-----0-----0--|-----0-----0-----0--|-----0-----0-----0--|-----0-----0-----0--|-----0-----0-----0--|-----0-----0-----0--|-----1-----1-----1--|-----1-----0-----0--|-----1-----1-----1--|-----1-----1-----1--|-----2-----2-----2--|-----2-----2-----2--|--------------------|--------------------|--------------------|--0-----2-----3-----|--------------2-----|--------------2-----|--0-----2-----3-----|--------------------|--0-----4-----------|--0-----4-----------|--------------------|--------------------|
T T T T T T T T T T T T---12-----4-----7---|---12-----4-----7---|---5------8-----7---|---5----3-----1-----|--------------------|--------------------|--------------------|--------------------|--------------------|--------------------|--------------------|--------------------|--------------------|--------------------|--------------------|--------------------|--------------------|--------------------|---0----------------|--------------------|---0----------------|---0----------------|--------------------|--------------------|
T T T T T T T T T T T T---12-----4-----7---|---12-----4-----7---|---5------8-----7---|---5----3-----1-----|--------------------|--------------------|--------------------|--------------------|--------------------|--------------------|--------------------|--------------------|--------------------|--------------------|--------------------|--------------------|--------------------|--------------------|---0----------------|--------------------|---0----------------|---0----------------|--------------------|--------------------|
T T T T T T T T T T T T---12-----4-----7---|---12-----4-----7---|---5------7-----8---|---10---12----13----|--------------------|--------------------|--------------------|--------------------|--------------------|--------------------|--------------------|--------------------|--------------------|--------------------|--------------------|--------------------|--------------------|--------------------|---0----------------|--------------------|---0----------------|---0----------------|--------------------|--------------------|
|-----0-----0-----0--|-----0-----0-----0--|-----0-----0-----0--||-----0-----0-----0--|-----0-----0-----0--|-----1-----1-----1--||-----1-----1-----1--|-----1-----1-----1--|-----2-----2-----2--||--------------------|--------------------|--------------------||--------------2-----|--------------2-----|--0-----3-----2-----||--0-----4-----------|--0-----4-----------|--------------------|
-----0-----0-----0--|-----0-----0-----0--|-----0-----0-----0--|-----1-----0-----0--|-----0-----0-----0--|-----0-----0-----0--|-----2-----2-----2--|-----1-----1-----1--|-----1-----1-----1--|--------------------|--------------------|--------------------|--0-----------------|--------------2-----|--------------2-----|--------3-----1-----|--0-----4-----------|--0-----4-----------|
-----0-----0-----0--|-----0-----0-----0--|-----1-----1-----1--|-----1-----1-----1--|-----2-----2-----2--|-----2-----2-----2--|--------------------|--------------------|--0-----3-----2-----|--0-----------------|--------------------|--------3-----1-----|
-----0-----0-----0--|-----0-----0-----0--|-----0-----0-----0--|-----0-----0-----0--| -----0-----0-----0--|-----0-----0-----0--|-----1-----1-----1--|-----1-----0-----0--| -----1-----1-----1--|-----1-----1-----1--|-----2-----2-----2--|-----2-----2-----2--| --------------------|--------------------|--------------------|--0-----2-----3-----| --------------2-----|--------------2-----|--0-----2-----3-----|--------------------| --0-----4-----------|--0-----4-----------|--------------------|--------------------|
(rasgueado) (Hold) v -0------------------|-0------------------|-0--------0-------0-|-0---------0--------|-0------------------|-0------------------|-0--------0-------0-|-0---------0--------|-1------------------|-2------------------|-4--------2-------1-|-2---------1--------|-2------------------|-3------------------|-5--------3-------2-|-2---------2--------|-2------------------|-3------------------|-5--------3-------2-|-2---------2--------|-0------------------|-0------------------|-0--------0-------0-|-0---------0--------|
Tap to rate this tab
 
# A B C D E F G H I J K L M N O P Q R S T U V W X Y Z