Give It Up tab with lyrics by Midtown - Easy chords and tabs for guitar

Midtown – Give It Up tab

Midtown
Give it Up
Tuning:Drop D


...yea i got tired so i didnt edit....took me bout an hour or two....but here it is!------------------------------------------------------------------------|------------------------------------------------------------------------|------------------------------------------------------------------------|-8---8---8---8---8---8---8---8---8---8---8---8---8---8---8---8----------|-8---8---8---8---8---8---8---8---8---8---8---8---8---8---8---8----------|-8---8---8---8---8---8---8---8---8---8---8---8---8---8---8---8----------|x3
bass part(come in after second time)-------------------------6----------------------------------------------|-8-8-6-8---8-6-8---8-6-8-----6---4-4-3-4---4-3--------------------------|-----------------------------------------------6---4-6-8-6---4----------|------------------------------------------------------------------------|x2
guitar 1-------------------------------------------------------------------------|-------------------------------------------------------------------------|-------------------------------------------------------------------------|-8-8-8-8-8-8-8-8---4-4-4-4-4-4-4-4---8-8-8-8-8-8-8-8---4-4-4-4-4-4-4-4---|-8-8-8-8-8-8-8-8---4-4-4-4-4-4-4-4---8-8-8-8-8-8-8-8---4-4-4-4-4-4-4-4---|-8-8-8-8-8-8-8-8x2-4-4-4-4-4-4-4-4x2-8-8-8-8-8-8-8-8x2-4-4-4-4-4-4-4-4x2-|
-------------------------------------------------------------------------|-------------------------------------------------------------------------|-------------------1111111111111111---------------------1111111111111111-|-8-8-8-8-8-8-8-8---1111111111111111---8-8-8-8-8-8-8-8---1111111111111111-|-8-8-8-8-8-8-8-8---9-9-9-9-9-9-9-9-x2-8-8-8-8-8-8-8-8x2-9-9-9-9-9-9-9-9--|x2-8-8-8-8-8-8-8-8-x2-------------------8-8-8-8-8-8-8-8--------------------|
guitar 1------------------------------------------------------------------------|------------------------------------------------------------------------|-----10------------------10b11---10---8---6---5h6p5---------------------|-8--------------------------------------------------6---8---------------|------------------------------------------------------------------------|------------------------------------------------------------------------|
guitar2------------------------------------------------------------------------|------------------------------------------------------------------------|--------------------------------------6/11~-----------------------------|------------------------------------------------------------------------|------------------------------------------------------------------------|---------------6-8-6---4------------------------------------------------|
guitar1-------------------------------------------------------------------------|-------------------------------------------------------------------------|-------------------------------------------------------------------------|-8-8-8-8-8-8-8-8---4-4-4-4-4-4-4-4---8-8-8-8-8-8-8-8---4-4-4-4-4-4-4-4---|-8-8-8-8-8-8-8-8---4-4-4-4-4-4-4-4---8-8-8-8-8-8-8-8---4-4-4-4-4-4-4-4---|-8-8-8-8-8-8-8-8x2-4-4-4-4-4-4-4-4x2-8-8-8-8-8-8-8-8x2-4-4-4-4-4-4-4-4x2-|
guitar 2------------------------------------------------------------------------|-------9-------9-------9---------------4------4-------4-----------------|-----6-------6-------6-----6---------6------6-------6-----6-------------|---8-------8-------8-----------8---8------8-------8-----------8---------|------------------------------------------------------------------------|x2------------------------------------------------------------------------|
guitar 1---------------------------------------------------|---------------------------------------------------|---------------------------------------------------|-4------------------------6------------------------|-4------------------------6------------------------|-4------------------------6------------------------|
guitar 2--------------------------------------------------|--------------------------------------------------|-----///////////////------------------------------|-----///Pickslide///------------------------------|-----///////////////------------------------------|--------------------------------------------------|
both guitars---------------------------------------------------------|---------------------------------------------------------|---------------------------------------------------------|-8-6-8------8-6-4---4-4---4-4-4---1---1-1---4---1--6-----|-8-6-8------8-6-4---4-4---4-4-4---1---1-1---4---1--6-----|-8-6-8------8-6-4---4-4---4-4-4---1---1-1---4---1--6-----|
------------------------------------------------------|------------------------------------------------------|------------------------------------------------------|-8-6-8------8-6-4---4-4---4-4-4---1---1-1---4---4-6---|-8-6-8------8-6-4---4-4---4-4-4---1---1-1---4---4-6---|-8-6-8------8-6-4---4-4---4-4-4---1---1-1---4---4-6---|
-------------------------------------------------------|-------------------------------------------------------|-------------------------------------------------------|-8---8---8---8---8---8---8---8---8---8---8-------------|-8---8---8---8---8---8---8---8---8---8---8-------------|-8---8---8---8---8---8---8---8---8---8---8-------------|
guitar 1----------------------------------------------------------|----------------------------------------------------------|--------------------------111111-----111111---------------|-8-8-8--------8-8-8-------111111-----111111---------------|-8-8-8--------8-8-8--------9-9-9--x2--9-9-9--x2-----------|x2-8-8-8---x2---8-8-8---x2----------------------------------| . . . . . . . .
guitar 2------------------------------4-2---4-2---4--------------------------|----------------------------------4-----4----------------------------|-----------------------------------------------13-11---13-11---13----|-----------------------------------------------------13-----13-------|---------------------------------------------------------------------|---------------------------------------------------------------------|
(if your playing the first part, play the this little lick on the D and Gonly the first time)-------------------------------------------------------------------------|-------------------------------------------------------------------------|-------------------------------------------------------------------------|-8-8-8-8-8-8-8-8---4-4-4-4-4-4-4-4---8-8-8-8-8-8-8-8---4-4-4-4-4-4-4-4---|-8-8-8-8-8-8-8-8---4-4-4-4-4-4-4-4---8-8-8-8-8-8-8-8---4-4-4-4-4-4-4-4---|-8-8-8-8-8-8-8-8x2-4-4-4-4-4-4-4-4x2-8-8-8-8-8-8-8-8x2-4-4-4-4-4-4-4-4x2-|
guitar 2------------------------------------------------------------------------|-------9-------9-------9---------------4------4-----7-6---7-6-----------|-----6-------6-------6-----6---------6------6-----6-----6-----6--8------|---8-------8-------8-----------8---8------8-----------------------------|------------------------------------------------------------------------|x2------------------------------------------------------------------------|
both guitars--------------------------------------------------------|--------------------------------------------------------|--------------------------------------------------------|-8-6-8------8-6-4---4-4---4-4-4---1---1-1---4----6------|-8-6-8------8-6-4---4-4---4-4-4---1---1-1---4----6------|-8-6-8------8-6-4---4-4---4-4-4---1---1-1---4----6------|x3
-------------------------------------------------------------------------|-------------------------------------------------------------------------|-------------------------------------------------------------------------|-8-6-8------8-6-4---4-4---4-4-4--1-1-1-1-1-1-1-1-1-1-3-3-3-3-3-3-3-3-3-8-|-8-6-8------8-6-4---4-4---4-4-4--1-1-1-1-1-1-1-1-1-1-3-3-3-3-3-3-3-3-3-8-|-8-6-8------8-6-4---4-4---4-4-4--1-1-1-1-1-1-1-1-1-1-3-3-3-3-3-3-3-3-3-8-|
----------------------------------------------------------------------|----------------------------------------------------------------------|----------------------------------------------------------------------|-8---6---8---6---8---6---8---6---8---6---8---6---8---6---8---6--------|---8---8---8---8---8---8---8---8---8---8---8---8---8---8---8---8------|x3----------------------------------------------------------------------|
----------------------------------------------------------------------|----------------------------------------------------------------------|----------------------------------------------------------------------|-8---6---8---6---8---6---8---6---8------------------------------------|---8---8---8---8---8---8---8---8--------------------------------------|----------------------------------------------------------------------|
----------------------------------------------------------------------|--------------------------------13-14-13------------------------------|-15-13-15---15-13-15---15-13-15----------15-13-15-13-15---15-13-15----|----------------------------------------------------------------------|----------------------------------------------------------------------|----------------------------------------------------------------------|
----------------------------------------------------------------------|----------13-14-13------------------------------------13-14-13--------|-15-13-15---------15-13-15-13-15---15-13-15---15-13-15--------15-13---|----------------------------------------------------------------------|----------------------------------------------------------------------|----------------------------------------------------------------------|
--------------------------------13----------------------------------------|----------------------------------16-14-13-14------------14-13-14---------|-15-13-15---15-13-15---15-13-15---------------15-13-15-----------15-13-15-|--------------------------------------------------------------------------|--------------------------------------------------------------------------|--------------------------------------------------------------------------|
-13-----------------------------------------13---------------------------|---16-14-13-14------------14-13-14-------------16-14-13-14---------------|---------------15-13-15------------15-13-15----------------15-13-15------|-------------------------------------------------------------------------|-------------------------------------------------------------------------|-------------------------------------------------------------------------|
-------------------13---------------------------------------13------------|-14-13-14-------------16-14-13-14----------14-13-14-----------16-14-13-14-|----------15-13-15----------------15-13-15----------15-13-15--------------|--------------------------------------------------------------------------|--------------------------------------------------------------------------|--------------------------------------------------------------------------|
----------16----------16----------16-14-13----13---------------|-14-13-14----14-13-14----14-13-14----------16------------------|---------------------------------------------------------------|---------------------------------------------------------------|---------------------------------------------------------------|---------------------------------------------------------------|
----------16----------16----------16-14-13----13---------------|-14-13-14----14-13-14----14-13-14----------16------------------|---------------------------------------------------------------|---------------------------------------------------------------|---------------------------------------------------------------|---------------------------------------------------------------|
----------16----------16----------16-14-13----13---------------|-14-13-14----14-13-14----14-13-14----------16------------------|---------------------------------------------------------------|---------------------------------------------------------------|---------------------------------------------------------------|
----------16----------16----------16-14-13----13---------------|-14-13-14----14-13-14----14-13-14----------16------------------|---------------------------------------------------------------|---------------------------------------------------------------|---------------------------------------------------------------|---------------------------------------------------------------|
-18b20--------18---18------18-18----18b21r20-----18-------------| x2----------------------------------------------------------------|----------------------------------------------------------------|----------------------------------------------------------------|----------------------------------------------------------------|----------------------------------------------------------------|
---------------------------------------------------------------|-------13-14-13------------------------------------------------|-13-15----------15-13-15-13-15---------------------------------|---------------------------------------------------------------|---------------------------------------------------------------|---------------------------------------------------------------|
---------------------------------------------------------------|---------------------------------------------------------------|---------------------------------------------------------------|-----------------------8---------------------------------------|-----------------------8---------------------------------------|-8-8-6-8---8-6-8---8-6-8---------------------------------------|
Please rate this tab:
x1.0