Misc Soundtrack - Django Unchained - Freedom tab version 1

Freedom - Anthony Hamilton
Also in Django Unchained OST

110 Bpm

You need to play it in palm mute, enjoy :

Intro

E |----------------------------|----------------------------|B |----------------------------|----------------------------|G |--6--6--6--6--6--6--6--6----|--6--6--6--6--6--6--6--6----|D |--6--6--6--6--6--6--6--6----|--6--6--6--6--6--6--6--6----|A |--4--4--4--4--4--4--4--4----|--4--4--4--4--4--4--4--4----|E |----------------------------|----------------------------|
----------------------------|----------------------------|----------------------------|----------------------------|----------------------------|----------------------------|--7--7--7--7--7--7--7--7----|--7--7--7--7--7--7--7--7----|--7--7--7--7--7--7--7--7----|--7--7--7--7--7--7--7--7----|--5--5--5--5--5--5--5--5----|--5--5--5--5--5--5--5--5----|
----------------------------|----------------------------|----------------------------|----------------------------|--6--6--6--6--6--6--6--6----|--6--6--6--6--6--6--6--6----|--6--6--6--6--6--6--6--6----|--6--6--6--6--6--6--6--6----|--4--4--4--4--4--4--4--4----|--4--4--4--4--4--4--4--4----|----------------------------|----------------------------|
----------------------------|----------------------------|----------------------------|----------------------------|----------------------------|----------------------------|--7--7--7--7--7--7--7--7----|--7--7--7--7--7--7--7--7----|--7--7--7--7--7--7--7--7----|--7--7--7--7--7--7--7--7----|--5--5--5--5--5--5--5--5----|--5--5--5--5--5--5--5--5----|
Verse
----------------------------|----------------------------|----------------------------|----------------------------|--6--6--6--6--6--6--6--6----|--6--6--6--6--6--6--6--6----|--6--6--6--6--6--6--6--6----|--6--6--6--6--6--6--6--6----|--4--4--4--4--4--4--4--4----|--4--4--4--4--4--4--4--4----|----------------------------|----------------------------|
----------------------------|----------------------------|----------------------------|----------------------------|--9--9--9--9--9--9--9--9----|----------------------------|--9--9--9--9--9--9--9--9----|--6--6--6--6--6--6--6--6----|--7--7--7--7--7--7--7--7----|--6--6--6--6--6--6--6--6----|----------------------------|--4--4--4--4--4--4--4--4----|
----------------------------|----------------------------|----------------------------|----------------------------|--6--6--6--6--6--6--6--6----|--6--6--6--6--6--6--6--6----|--6--6--6--6--6--6--6--6----|--6--6--6--6--6--6--6--6----|--4--4--4--4--4--4--4--4----|--4--4--4--4--4--4--4--4----|----------------------------|----------------------------|
----------------------------|----------------------------|----------------------------|----------------------------|----------------------------|----------------------------|--7--7--7--7--7--7--7--7----|--7--7--7--7--7--7--7--7----|--7--7--7--7--7--7--7--7----|--7--7--7--7--7--7--7--7----|--5--5--5--5--5--5--5--5----|--5--5--5--5--5--5--5--5----|
----------------------------|----------------------------|----------------------------|----------------------------|--6--6--6--6--6--6--6--6----|--3--3--3--3--3--3--3--3----|--6--6--6--6--6--6--6--6----|--4--4--4--4--4--4--4--4----|--4--4--4--4--4--4--4--4----|--4--4--4--4--4--4--4--4----|----------------------------|--2--2--2--2--2--2--2--2----|
----------------------------|----------------------------|----------------------------|----------------------------|--9--9--9--9--9--9--9--9----|----------------------------|--9--9--9--9--9--9--9--9----|--6--6--6--6--6--6--6--6----|--7--7--7--7--7--7--7--7----|--6--6--6--6--6--6--6--6----|----------------------------|--4--4--4--4--4--4--4--4----|
Chorus :
----------------------------|----------------------------|----------------------------|----------------------------|--6--6--6--6--6--6--6--6----|--6--6--6--6--6--6--6--6----|--6--6--6--6--6--6--6--6----|--6--6--6--6--6--6--6--6----|--4--4--4--4--4--4--4--4----|--4--4--4--4--4--4--4--4----|----------------------------|----------------------------|
----------------------------|----------------------------|----------------------------|----------------------------|----------------------------|----------------------------|--7--7--7--7--7--7--7--7----|--7--7--7--7--7--7--7--7----|--7--7--7--7--7--7--7--7----|--7--7--7--7--7--7--7--7----|--5--5--5--5--5--5--5--5----|--5--5--5--5--5--5--5--5----|
----------------------------|----------------------------|----------------------------|----------------------------|--4--4--4--4--4--4--4--4----|--4--4--4--4--4--4--4--4----|--4--4--4--4--4--4--4--4----|--4--4--4--4--4--4--4--4----|--2--2--2--2--2--2--2--2----|--2--2--2--2--2--2--2--2----|----------------------------|----------------------------|
----------------------------|----------------------------|----------------------------|----------------------------|--6--6--6--6--6--6--6--6----|----------------------------|--6--6--6--6--6--6--6--6----|--6--6--6--6--6--6--6--6----|--4--4--4--4--4--4--4--4----|--6--6--6--6--6--6--6--6----|----------------------------|--4--4--4--4--4--4--4--4----|
----------------------------|----------------------------|----------------------------|----------------------------|--6--6--6--6--6--6--6--6----|--6--6--6--6--6--6--6--6----|--6--6--6--6--6--6--6--6----|--6--6--6--6--6--6--6--6----|--4--4--4--4--4--4--4--4----|--4--4--4--4--4--4--4--4----|----------------------------|----------------------------|
----------------------------|----------------------------|----------------------------|----------------------------|----------------------------|----------------------------|--7--7--7--7--7--7--7--7----|--7--7--7--7--7--7--7--7----|--7--7--7--7--7--7--7--7----|--7--7--7--7--7--7--7--7----|--5--5--5--5--5--5--5--5----|--5--5--5--5--5--5--5--5----|
----------------------------|------|||----------------------------|------|||--4--4--4--4--4--4--4--4----|-----o|||--4--4--4--4--4--4--4--4----|-----o|||--2--2--2--2--2--2--2--2----|------|||----------------------------|------|||
Tap to rate this tab
 
# A B C D E F G H I J K L M N O P Q R S T U V W X Y Z