Misc Television - Braveheart tab

Braveheart

From The Album Facing The Animal

Autor: Yngwie Malmsteen

Tabbed By Martin Bisonni

EMail: martin_bichoni@hotmail.com




Riff Intro: 


|--------------------------------------------------------------------------||--------------------------------------------------------------------------||-------------------------------------------------------7------7-9----7-9--||--------------6-----6-7---6-7-9-6-7-9-10-7-9-10-7-9-10---9-10-----10------||--5-7-8-5-7-8---7-8-----8-------------------------------------------------||--------------------------------------------------------------------------|
|--------------------------------------------------------------------------||--------------------------------------------------------------------------||--10-9-7----9-7------7------------------------------------------7--9~-----||---------10-----10-9---10-9-7-10-9-7-6-9-7-6--------------------7--9~-----||---------------------------------------------8-7~---------------5--7~-----||---------------------------------------------------0-0-0-0-0-0------------|
|--------------------------------------------------------------------------||--------------------------------------------------------------------------||-------------------------------------------------------7------7-9----7-9--||--------------6-----6-7---6-7-9-6-7-9-10-7-9-10-7-9-10---9-10-----10------||--5-7-8-5-7-8---7-8-----8-------------------------------------------------||--------------------------------------------------------------------------|
|--------------------------------------------------------------------------||--------------------------------------------------------------------------||--10-9-7----9-7------7------------------------------------------7--9~-----||---------10-----10-9---10-9-7-10-9-7-6-9-7-6--------------------7--9~-----||---------------------------------------------8-7~---------------5--7~-----||--------------------------------------------------------0-0-0-------------|
(1)|---------------------------------------------------||---------------------------------------------------||----------------------7/9-----------3~-------------||--3-------------------7/9-----------3~----3~-------||--3-2--2-2-2--2--2-2--5/7--2-2-2-2--1~----3~-------||--1-0--0-0-0--0--0-0-------0-0-0-0--------1~-------|
(2)|---------------------------------------------------||---------------------------------------------------||----------------------7/9-------------3~-----------||--3-------------------7/9-------------3~----3~-----||--3-2--2-2-2--2--2-2--5/7--2-2-2-2-2--1~----3~-----||--1-0--0-0-0--0--0-0-------0-0-0-0-0--------1~-----|
************ x2|--------------------------------------------------||--------------------------------------------------||----------------------7/9-----------3~----------*-||--3-------------------7/9-----------3~----3~------||--3-2--2-2-2--2--2-2--5/7--2-2-2-2--1~----3~----*-||--1-0--0-0-0--0--0-0-------0-0-0-0--------1~------|
(3)|--------------------------------------------------------------------------||--------------------------------------------------------------------------||--------------------7-9-10-9h10p9~---------------7------------------------||-------------7-9-10-----------------------7-9-10---10-9-10~---------------||--0--0-0-0-0------------------------0-0-0---------------------------------||--------------------------------------------------------------------------|
|--------------------------------------------------------------------------||--------------------------------------------------------------------------||---------------7-9-10-9h10p9p7--------------------------------------------||--------7-9-10-----------------10-9-7-6-----------------------------------||--0-0-0---------------------------------8-7-5-----------------------------||----------------------------------------------8-7-------------------------|
|--------------------------------------------------------------------------||--------------------------------------------------------------------------||--------------------7-9-10-9h10p9~---------------7------------------------||-------------7-9-10-----------------------7-9-10---10-9-10~---------------||--0--0-0-0-0------------------------0-0-0---------------------------------||--------------------------------------------------------------------------|
|--------------------------------------------------------------------------||--------------------------------------------------------------------------||---------------7-9-10-9h10p9p7--------------------------------------------||--------7-9-10-----------------10-9-7-6-----------------------------------||--0-0-0---------------------------------8-7-5-----------------------------||----------------------------------------------8-7-------------------------|
**********
(4)|--------------------------------------------------------------------------||--------------------------------------------------------------------------||---------------------------------------------------------7--9~------------||---------------------------------------------------------7--9~------------||--2-----------2--------------------------2---------------5--7~------------||--0--0-0-0-0--0--0-0-0-0-0-0-0-0-0-0-0-0-0-0-0-0-0-0-0-0------------------|
|--------------------------------------------------------------------------||--------------------------------------------------------------------------||------------------------------------------7--10~--------------------------||------------------------------------------7--10~--------------------------||--2-----------2---------------------------5---8~--------------------------||--0--0-0-0-0--0--0-0-0-0-0-0-0-0-0-0-0-0----------------------------------|
********** Return To Riff Intro:
|--------------------------------------------------------------------------||--------------------------------------------------------------------------||-------------------------------------------------------7------7-9----7-9--||--------------6-----6-7---6-7-9-6-7-9-10-7-9-10-7-9-10---9-10-----10------||--5-7-8-5-7-8---7-8-----8-------------------------------------------------||--------------------------------------------------------------------------|
|--------------------------------------------------------------------------||--------------------------------------------------------------------------||--10-9-7----9-7------7------------------------------------7--9~-----------||---------10-----10-9---10-9-7-10-9-7-6-9-7-6--------------7--9~-----------||---------------------------------------------8-7~---------5--7~-----------||--------------------------------------------------------------------------|
|--------------------------------------------------------------------------||--------------------------------------------------------------------------||-------------------------------------------------------7------7-9----7-9--||--------------6-----6-7---6-7-9-6-7-9-10-7-9-10-7-9-10---9-10-----10------||--5-7-8-5-7-8---7-8-----8-------------------------------------------------||--------------------------------------------------------------------------|
|--------------------------------------------------------------------------||--------------------------------------------------------------------------||--10-9-7----9-7------7------------------------------------------7--9~-----||---------10-----10-9---10-9-7-10-9-7-6-9-7-6--------------------7--9~-----||---------------------------------------------8-7~---------------5--7~-----||--------------------------------------------------------------------------|
Repeat (1) x2 Repeat (3) Repeat (4) x2 Repeat (3) and Then:
|--------------------------------------------------------------------------||--------------------8-10-11-10~---------------8---------------------------||-------------7-9-10--------------------7-9-10---10-9-10~------------------||--0--0-0-0-0---------------------0-0-0------------------------------------||--------------------------------------------------------------------------||--------------------------------------------------------------------------|
|--------------------------------------------------------------------------||---------------8-10-11-10h11p10p8-----------------------------------------||--------7-9-10--------------------10-9-7-6--------------------------------||--0-0-0------------------------------------8-7-5--------------------------||-------------------------------------------------8-7----------------------||--------------------------------------------------------------------------|
|--------------------------------------------------------------------------||--------------------------------------------------------------------------||--------------------7-9-10-9h10p9~---------------7------------------------||-------------7-9-10-----------------------7-9-10---10-9-10~---------------||--0--0-0-0-0------------------------0-0-0---------------------------------||--------------------------------------------------------------------------|
|--------------------------------------------------------------------------||--------------------------------------------------------------------------||---------------7-9-10-9h10p9p7--------------------------------------------||--------7-9-10-----------------10-9-7-6----------------2~-----------------||--0-0-0---------------------------------8-7-5----------0~-/With Bar/------||----------------------------------------------8-7-------------------------|
Interlude:
|----------------------------------------------------------||--0-2-3-0-0-5-0-0-7-0-0-8-7-5-7-0-0-0-0-0---0-2-5-3-2-3---||------------------------------------------2---------------||----------------------------------------------------------||----------------------------------------------------------||----------------------------------------------------------|
|----------------------------------------------------------||--0-0-5-0-0-7-0-0-8-7-5-7-0-0-0-0-0-2h3p2p0---------------||--------------------------------------------2~------------||----------------------------------------------------------||----------------------------------------------------------||----------------------------------------------------------|
|----------------------------------------------------------||--3-0-0-5-0-0-7-0-0-8-7-5-7-0-0-0-0-0---0-2-5-3-2-3-------||--------------------------------------2-------------------||----------------------------------------------------------||----------------------------------------------------------||----------------------------------------------------------|
|----------------------------------------------------------||--0-0-5-0-0-7-0-0-8-7-5-7-0-0-0-0-0-2h3p2p0---------------||--------------------------------------------2~------------||----------------------------------------------------------||----------------------------------------------------------||----------------------------------------------------------|
|--3-0-0-5-0-0-7-0-0-8-7-5-7-0-0-0-0-0---0-2-5-3-2-3-------||--------------------------------------3-------------------||----------------------------------------------------------||----------------------------------------------------------||----------------------------------------------------------||----------------------------------------------------------|
|--0-0-5-0-0-7-0-0-8-7-5-7-0-0-0-0-0-2h3p2p0---------------||--------------------------------------------3~------------||----------------------------------------------------------||----------------------------------------------------------||----------------------------------------------------------||----------------------------------------------------------|
|--3-0-0-5-0-0-7-0-0-8-7-5-7-0-0-0-0-0---0-2-5-3-2-3-------||--------------------------------------3-------------------||----------------------------------------------------------||----------------------------------------------------------||----------------------------------------------------------||----------------------------------------------------------|
|--0-0-5-0-0-7-0-0-8-7-5-7-0-0-0-0-0-2h3p2p0---------------||--------------------------------------------3~------------||----------------------------------------------------------||----------------------------------------------------------||----------------------------------------------------------||----------------------------------------------------------|
|----------------------------------------------------------||--3-0-0-5-0-0-7-0-0-8-7-5-7-0-0-0-0-0---0-2-5-3-2-3-------||--------------------------------------2-------------------||----------------------------------------------------------||----------------------------------------------------------||----------------------------------------------------------|
|----------------------------------------------------------||--0-0-5-0-0-7-0-0-8-7-5-7-0-0-0-0-0-2h3p2p0---------------||--------------------------------------------2~------------||----------------------------------------------------------||----------------------------------------------------------||----------------------------------------------------------|
|----------------------------------------------------------||--3-0-0-5-0-0-7-0-0-8-7-5-7-0-0-0-0-0---0-2-5-3-2-3-------||--------------------------------------2-------------------||----------------------------------------------------------||----------------------------------------------------------||----------------------------------------------------------|
|----------------------------------------------------------||--0-0-5-0-0-7-0-0-8-7-5-7-0-0-0-0-0-2h3p2p0---------------||--------------------------------------------2~------------||----------------------------------------------------------||----------------------------------------------------------||----------------------------------------------------------|
SOLO Riff (4) Over SOLO
Tap to rate this tab
 
# A B C D E F G H I J K L M N O P Q R S T U V W X Y Z