Misc Unsigned Bands - Through These City Streets - The Hole In Edward Nortons Chest tab

Artist - Through These City Streets
Song - The Hole In Edward Norton's Cheek
Album - The Day After Tragedy [EP]
Website - http://www.myspace.com/throughthesecitystreets
Tuning-Drop C
D
A
F
C
G
C

Note: This is the lead guitar section only. Btw, This is 100% because well...I wrote it.

Intro (4x)

|-------|-------10-10-10-------10-10-10-10-10-10-------10-10-10-10------10------||--------8--8--8--------8--8--8--8--8--8--------8--8--8---8-8-7--8-8-7--||-0-0-0--7--7--7-0-0-0--7--7--7--7--7--7-0-0-0--7--7--7----7---8--7---8-||-0-0-0----------0-0-0-------------------0-0-0--------------------------||-0-0-0----------0-0-0-------------------0-0-0--------------------------|
Chorus
|-----------------------------------------------------------------------||----------10/12/9/7/9----------10/12/14/12/15--------------------------||-----------x/x/-x/x/x-----------x/-x/-x/-x/-x--------------------------||-000000000-8/10/7/5/7-00000000--8/10/12/10/13--------------------------||-000000000----------------00000000-------------------------------------||-000000000----------------00000000-------------------------------------|
Verse pt. 1 (4x)
|----------------------0-0-0|----------------------4-4-4|---------------------------|-0-0000-0-0000-0-0000------|-0-0000-0-0000-0-0000------|-0-0000-0-0000-0-0000------ **** **** ****
Verse pt. 2 (4x) (Notes Parenthesized played last time through only)
|-0--0-----0-----0-----0-----0-0-0-(0)-||-4--4-----4-----4-----4-----4-4-4-(4)-||--------------------------------------||------0000--0000--0000--0000----------||------0000--0000--0000--0000----------||------0000--0000--0000--0000----------|
(Chorus) Bridge 1 (2x)
|----------------------------------------------------------------------||----------------------------------------------------------------------||--2---0-0-2-2-1-1---2---0-0-3-3-2-2---2---0-0-2-2-1-1--3-2-1----------||-0-0-2-2-2-2-2-2-2-0-0-2-2-2-2-2-2-2-0-0-2-2-2-2-2-2-2------3-2-1-1h2-||----------------------------------------------------------------------||----------------------------------------------------------------------|
Verse Two (4x)
|----------------------------------------||----------------------------------------||------9-9-9-9-9-9h10------10-9-12-7-7-7-||-0000-0-0-0-0-0-0----0000--0-0--0-0-0-0-||-0000----------------0000---------------||-0000----------------0000---------------|
Bridge 2 (Solo pt. 1)
|---------------------------------------------------------------||---------------------------------------------------------------||----10p0-9p0-7p0-5p0-3p0-2p0-2h3---10p0-9p0-7p0-5p0-3p0-2p0-2--||-0-0----------------------------0-0--------------------------3-||---------------------------------------------------------------||---------------------------------------------------------------|
|--------------------------------------------------------------------||-----------------------------------------------------------10-11-13-||----10p0-9p0-7p0-5p0-3p0-2p0-2h3---9-10-12-10-9-7---9-10-12---------||-0-0----------------------------0-0--------------0-0----------------||--------------------------------------------------------------------||--------------------------------------------------------------------|
|-------------------10-11-13---------||-----------10-11-13--------13-11-10-||----9-10-12-------------------------| (Repeat This Section Twice)|-0-0--------------------------------||------------------------------------||------------------------------------|
Bridge 3
|------------------------------------------------------------------||------------------------------------------------------------------||------------------------------------------------------------------||-0000000-88888888-0000000----------------0000000-88888888-0000000-||-0000000-88888888-0000000-12-10-8-10-8-7-0000000-88888888-0000000-||-0000000-88888888-0000000----------------0000000-88888888-0000000-|
|------------------------------------------------------------------||------------------------------------------------------------------||------------------------------------------------------------------||----------------0000000-88888888-0-0------------------------------||-12-10-8-10-8-7-0000000-88888888-0-0-12-10-8-10-8-7^--------------||----------------0000000-88888888-0-0------------------------------|
Solo pt. 2
|------------------------------------------------------------------||------------------------------------------------------------------||------------------------------------------------------------------||------5-7-8-10-8-7-------10-8-7----------5-7-8-10-8-7-------------||-5-7-8------------10-8-7--------10--5-7-8------------10-8-7-8^----||------------------------------------------------------------------|
|-----------------------------------------------------------||-----------------------------------------------------------||-----------------------------------------------------------||------5-7-8-10-8-7-------10-8-7----------5-7-8-10-8-7------||-5-7-8------------10-8-7--------10-5-7-8------------10-8-7-||-----------------------------------------------------------|
|------------------------------------------------------------------||---------------------------------------------7h8h10------7h8h10---||-10-8-7-----------10------8---------7--7h8h10------7h8h10---------||-------10-8b-8-7-8--8-7-8--8--7--8---8----------------------------||------------------------------------------------------------------||------------------------------------------------------------------|
Verse Three (2x)
|-----------------------------------------------||-----------------------------------------------||-----------------------------------------------||-77777777-88888888-00-8-7-00-5-7-00-10-7-8-5-7-||-77777777-88888888-00-----00-----00------------||-77777777-88888888-00-----00-----00------------|
|---------------------------------------------------------------||---------------------------------------------------------------||-----------------------------------------------10--------------||-77777777-88888888-00-8-7-00-5-7-00-8-7-8-7-8-7--8-7-8-7-8-----||-77777777-88888888-00-----00-----00----------------------------||-77777777-88888888-00-----00-----00----------------------------|
(Chorus) Outro (Figure Out The Picking, I'm too lazy!)
|---------------------------------------------------------------||---------------------------------------------------------------||-14-12-10--14-12-10-12-10-9---14-12-15-10--14-12-10-12-10-9----||--x--x--x---x--x--x--x--x-x----x--x--x--x---x--x--x--x--x-x----||-12-10--8--12-10--8-10--8-7---12-10-13--8--12-10--8-10--8-7----||---------------------------------------------------------------|
Tap to rate this tab
 
# A B C D E F G H I J K L M N O P Q R S T U V W X Y Z