Morbid Angel - Rapture tab version 1

Tuning: Eb Ab Db Gb Bb Eb

b-Bend
p-pull off
h-hammer on
.-Palm Mute

Morbid Angel: Rapture

|---------------------------------------------------||---------------------------------------------------||---------------------------------------------------||--------------------------------------------5-4-7--||-------------------333222-------------------3-2-5--||-111311444311444311-------111311444311444311-------| x1
|---------------------------------------------------||---------------------------------------------------||---------------------------------------------------||---------------------------------------------------||-------------------333222-------------------3-2-5b-||-111311444311444311-------111311444311444311-------| x2
|----------------------------------------------||----------------------------------------------||----------------------------------------------||----------------------------------------------||-------------------333222---------------------||-111311444311444311-------111311444311444311--| x1
|--------------------------||--------------------------||--------------------------||-3-----9-----7----6----9--||-1-000-7-000-5-00-4-00-7--||--------------------------| x1 ... ... .. ..
|-----------------------------||-----------------------------||-----------------------------||----3-----9-----7----6----9--||210-1-000-7-000-5-00-4-00-7--||-----------------------------| x3 ... ... ... .. ..
|--------------------------------------------------||--------------------------------------------------||--------------------------------------------------||-----------------------------------------------3--||-000111------000111---444-000111------000111---1--||-------333444------333----------333444------333---| x2
|--------------------------||--------------------------||--------------------------||-3-----9-----7----6----9--||-1-000-7-000-5-00-4-00-7--||--------------------------| x1 ... ... .. ..
|---------------------------------||---------------------------------||---------------------------------||----3-----9-----7----6----9------||210-1-000-7-000-5-00-4-00-7-210--||---------------------------------| x1 ... ... ... .. .. ...
|--------------------------------------------------||--------------------------------------------------||--------------------------------------------------||-----------------------------------------------3--||-000111------000111---444-000111------000111---1--||-------333444------333----------333444------333---| x2
|--------------------------||--------------------------||--------------------------||-3-----9-----7----6----9--||-1-000-7-000-5-00-4-00-7--||--------------------------| x1 ... ... .. ..
|---------------------------------||---------------------------------||---------------------------------||----3-----9-----7----6----9------||210-1-000-7-000-5-00-4-00-7-210--||---------------------------------| x1 ... ... ... .. .. ...
|--------------------------------------------------||--------------------------------------------------||--------------------------------------------------||-----------------------------------------------3--||-000111------000111---444-000111------000111---1--||-------333444------333----------333444------333---| x2
(no solo)
|--------------------------------------------------||--------------------------------------------------||--------------------------------------------------||--------------------------------------------------||----------------------222-------------------3-2-5-||-111222111444111222111---111222111444111222-------| x4
|-------------------------------||-------------------------------||-------------------------------||-------------------------------||---------2h3p2--5p4--2p0-------||-0-0-0-0------------------3p2--| x1 . . . .
(no second solo)
|---------------------------------------------------||---------------------------------------------------||---------------------------------------------------||---------------------------------------------------||-------------------333222-------------------3-2-5b-||-111311444311444311-------111311444311444311-------| x4
|--------------------------||--------------------------||--------------------------||-3-----9-----7----6----9--||-1-000-7-000-5-00-4-00-7--||--------------------------| x1 ... ... .. ..
|------------------------------||------------------------------||------------------------------||----3-----9-----7----6----9---||210-1-000-7-000-5-00-4-00-7---||------------------------------| x3 ... ... ... .. ..
|---------------------------------------------------||---------------------------------------------------||---------------------------------------------------||---------------------------------------------------||-------------------333222-------------------3-2-5b-||-111311444311444311-------111311444311444311-------| x4
|--------------------------||--------------------------||--------------------------||-3-----9-----7----6----9--||-1-000-7-000-5-00-4-00-7--||--------------------------| x1 ... ... .. ..
|------------------------------||------------------------------||------------------------------||----3-----9-----7----6----9---||210-1-000-7-000-5-00-4-00-7---||------------------------------| x3 ... ... ... .. ..
|--------------------------------------------------||--------------------------------------------------||--------------------------------------------------||-----------------------------------------------3--||-000111------000111---444-000111------000111---1--||-------333444------333----------333444------333---| x2
Tap to rate this tab
 
# A B C D E F G H I J K L M N O P Q R S T U V W X Y Z