Motley Crue - Helter Skelter tab

helter skelter
motley crue

b- bend
\- slide up
/- slide down
nh- natural harmonic
PM- palm mute
x- palm mute
h- hammer on
p- pull off
(#)- fret # in parenthesis is a ghost note
~- let ring
^- use bar 

intro----------------------------------------------------------------------7-7-7-7-7-7-7-7-7-7-7-7-7-7-7-7---7-7-7-7-7-7-7-7-7-7-7-7-7-7-7-7---9-9-9-9-9-9-9-9-9-9-9-9-9-9-9-9---9-9-9-9-9-9-9-9-9-9-9-9-9-9-9-9-------------------------------------------------------------------------------------------------------------------------------------------------------------------------------------------------------------
----------------------------------------------------------------------7-7-7-7-7-7-7-7-7-7-7-7-7-7-7-7---7-7-7-7-7-7-7-7-7-7-7-7-7-7-7-7---9-9-9-9-9-9-9-9-9-9-9-9-9-9-9-9---8-8-8-8-8-8-8-8-8-8-8-8-8-8-8-8-------------------------------------------------------------------------------------------------------------------------------------------------------------------------------------------------------------
nh --------------------------------------------------------------------------7-7-7-7-7-7-7-7-7-7-7-7-7-7-7-7\----------------------------------------7-7-7-7-7-7-7-7-7-7-7-7-7-7-7-7\---------------------4b---------------------------------------------------2----4-2----4----------0-4------4-4-------------------------------------0----0-0----0--4---------4------4-4----------------------------------------------------2---------2------2-2-
verse PM--------------------|----------------------------------------------------------------------------------2--------4-4-4-4-4-4-4-4-4--2--------4-4-4-4-4-4-4-4-4--0---0h2--2-2-2-2-2-2-2-2-2----
PM--------------------| ----------------------------------------------------------------------------------4-4-4-4-4-4-4-4-4--------4-4-4-4-4-4-4-4-4---0h2--2-2-2-2-2-2-2-2-2-
pre-chorus----------------------------------------------------------------------------------------------------------------------------------------------------------------------7-7-9-9-7-7-9-9--7-7-9-9--7-7-7-7/9--9---5-5-5-5-5-5-5-5--5-5-5-5--5-5-5-5/7--7-
gtr 2--------------------------------------------------------------------------------------------------------------------7-----7-----7-7--7---7-7-7---7/9--9---7-----7-----7-7--7---7-7-7---7/9--9---5-----5-----5-5--5---5-5-5---5/7--7-
gtr 1--------------------------------------------4b-^-^p2----------------------4--0---4------------4--0---2------------2----
chorus PM----| PM---|--------------------------------------------------------0-0-0-0-0-0-0-0-0-0-------------------------------------------------------------0-7-7-7-7-7-7-7-7-7-7b-----------------2-1---------------------------------------------------------------x\-----4-4-6-6-------4-2-1----------------2-1-------------------------------------x\-0---2-2-2-2--------------4-2--4-4-6-6-------4-2-1---------------------------------0-----------------------------2-2-2-2--------------4-2------------------------------
verse PM--------------------|----------------------------------------------------------------------------------2--------4-4-4-4-4-4-4-4-4--2--------4-4-4-4-4-4-4-4-4--0---0h2--2-2-2-2-2-2-2-2-2----
PM--------------------| ----------------------------------------------------------------------------------4-4-4-4-4-4-4-4-4--------4-4-4-4-4-4-4-4-4---0h2--2-2-2-2-2-2-2-2-2-
pre-chorus----------------------------------------------------------------------------------------------------------------------------------------------------------------------7-7-9-9-7-7-9-9--7-7-9-9--7-7-7-7/9--9---5-5-5-5-5-5-5-5--5-5-5-5--5-5-5-5/7--7-
gtr 2--------------------------------------------------------------------------------------------------------------------7-----7-----7-7--7---7-7-7---7/9--9---7-----7-----7-7--7---7-7-7---7/9--9---5-----5-----5-5--5---5-5-5---5/7--7-
gtr 1--------------------------------------------4b-^-^p2----------------------4--0---4------------4--0---2------------2----
chorus PM-----| PM---| PM----|-------------------------------------------------------------------------------------------------------------------------------------------------------------------------2-1--------------------------------------------------2-1--------------4-4-6-6-------4-2-1----------------2-1---------------4-4-6-6------4-2-1--------2-2-2-2--------------4-2--4-4-6-6-------4-2-1--------2-2-2-2-------------4-2-----------------------------2-2-2-2--------------4-2---------------------------
---0-0-0-0-0-0-0-0-0-0----------------------------0-7-7-7-7-7-7-7-7-7-7b---------------------------------------------------x\-----------------------------------------------x\----4---------------4--------------------------------4---------------4--------------------------------2---------------2--
sologtr 1 PM----------------| PM PM PM----------------------------------------------------------------------------------------------------------4-4-4-4-4-4-4-4-4-4-2-------------------------------4-4-4-4-4-4-4-4-4-4-2---0h4-------4-----4-------2---2-2-2-2-2-2-2-2-2-2-0---0h4---4-4-4-4-4-4-4-4-4-2---------------------------0h2---2-2-2-2-2-2-2-2-2-0-
gtr 2 bend 4 1/2 bend 1 1/2---------------------------------------------------------------------------7(10)^^^^^^------------------(7)(10)-----------------(10)--------(7)b\-----------------------------------------------------------------------------------------------------------------------------------------------------------------------------------------------------------------------------------------------------------------------------------------------------
gtr 1 PM PM PM PM-------------| --------------------------------------------------------------------14-14-14---14------------------------------------------------------------------/17-------17b--17b-----------4-----4-4-4-4-2----------------------------------------------------------------4-4-4-4-4-4-4-4-4-2-------------4----------------------------------------------0h2-2-2-2-2-2-2-2-2-2-0-------4--4--4--4--4--4--4--4---4-2p0------------------------------------------------0h2--2--2--2--2--2--2--2--2---2-0-----------------------
--14-16-17-17-14-16-17-17-14-17-18-18-14-17-18-18-19-21-21-18-19-21/24b-------------------------------------------------------------------------------------------------------------------------------------------------------------------------------------------------------------------------------------------------------------------------------------------------------------------------------------------------------------------------
PM PM ------------------------------------------------------------------------------------7-7-7-7-7-7-7-7-7-7-7-7-7-7-7-7---4-----4-----4-4-4-4-2---9-9-9-9-9-9-9-9-9-9-9-9-9-9-9-9---4-4-4-4-4-4-4-4-4-4-2-------------------------------------2-2-2-2-2-2-2-2-2-2-0---------------------------------------------------------------------------------------------
dont dive, let the pitch return to standard, use echo on the ghost notes bend 1 1/2 4 1/2 ----------------------------14(17)^^^---------(17)----------------------------------------------------------------------------------------------------------
----------------------------------------------------------------------7-7-7-7-7-7-7-7-7-7-7-7-7-7-7-7---7-7-7-7-7-7-7-7-7-7-7-7-7-7-7-7---9-9-9-9-9-9-9-9-9-9-9-9-9-9-9-9---8-8-8-8-8-8-8-8-8-8-8-8-8-8-8-8-------------------------------------------------------------------------------------------------------------------------------------------------------------------------------------------------------------
-----------------------------------------------------------------7-7-7-7-7-7-7-7-7-7-7-7-7-7-7-7\-------------------------------7-7-7-7-7-7-7-7-7-7-7-7-7-7-7-7\---------------------4b------------------------------------------2----4-2----2----------0-4-------------------------------------0----0-0----0--4---------4----------------------------------------------------2---------2-
verse PM--------------------|----------------------------------------------------------------------------------2--------4-4-4-4-4-4-4-4-4--2--------4-4-4-4-4-4-4-4-4--0---0h2--2-2-2-2-2-2-2-2-2----
PM--------------------| ----------------------------------------------------------------------------------4-4-4-4-4-4-4-4-4--------4-4-4-4-4-4-4-4-4---0h2--2-2-2-2-2-2-2-2-2-
pre-chorus----------------------------------------------------------------------------------------------------------------------------------------------------------------------7-7-9-9-7-7-9-9--7-7-9-9--7-7-7-7/9--9---5-5-5-5-5-5-5-5--5-5-5-5--5-5-5-5/7--7-
gtr 2--------------------------------------------------------------------------------------------------------------------7-----7-----7-7--7---7-7-7---7/9--9---7-----7-----7-7--7---7-7-7---7/9--9---5-----5-----5-5--5---5-5-5---5/7--7-
gtr 1--------------------------------------------4b-^-^p2----------------------4--0---4------------4--0---2------------2----
chorus PM---| PM----| ------------------------------0-0-0-0-0-0-0-0-0-0----------------------------------------------------------0-7-7-7-7-7-7-7-7-7-7b----------------------------------------2-1-------------------------------------x\-----------2-1--------------4-4-6-6-------4-2-1------------------------------x\--4-4-6-6------4-2-1--------2-2-2-2--------------4-2-----------------------------2-2-2-2-------------4-2--------------------------------------------------------------------------------
-----------------------------------------------------------------------------------------------------------------------------------------------------------2-1---------------------------------2-1------------4-4-6-6------4-2-1--------4----4~---4-4-6-6------4-2-1------2-2-2-2-------------4-2---4----4~---2-2-2-2------------4-2----------------------------2----2~-
with les paul type electronics, set lead to full and rhythm to 0 and flip toggle switch in specified rhythm, where the notes are when the lead pickup is on and the rests and the pickup is off in the neck position
--------------------------------------------------------------------------------------------------------------------------------------------------------------------------------------------(4)-(4)-(4)-(4)-(4)-(4)-(4)-(4)-(4)-(4)-(4)-(4)-(4)-(4)-(4)---(4)-(4)-(4)-(4)-(4)-(4)-(4)-(4)-(4)-(4)-(4)-(4)-(4)-(4)-(4)---(2)-(2)-(2)-(2)-(2)-(2)-(2)-(2)-(2)-(2)-(2)-(2)-(2)-(2)-(2)-
questions email me- valkeyrie3@hotmail.com
Tap to rate this tab
 
# A B C D E F G H I J K L M N O P Q R S T U V W X Y Z