Motorhead - Bad Religion tab

Artist: Motorhead
Song: Bad Religion
Album: March or Die
Tabbed By: Menno Roymans (the doctor)
Tuning: Eb

Intro:

---------------------------|---------------------------|----------------------7----|----------------------7----|----------------------5----|-0000000000000000000-------| [........pm........]
Riff 1:
---------------------------|---------------------------|---------------------------|---------------------------|---5--7---5--7--5/7--------|-0-------------------------|
---------------------------|---------------------------|---------------------------|----------------5----------|---5--7---5--7----7--------|-0-------------------------|
play 5 times Riff 2:
----------------|----------------|-5--------5-----|-5--------5-----|-3--------3-----|----------------|
1x Riff 1 1x Riff 2 1x Riff 1 Riff 3
----------------------|----------------------|----------------------|-4---4--4---4--4-2----| 2 times-4---4--4---4--4-2----|-2-0-2--2-0-2--2-0----|
---------------|---------------|---------------|-7-------7-----|-7-------7-----|-5-------5-----|
----------------------|----------------------|----------------------|-4---4--4---4--4-2----| 2 times-4---4--4---4--4-2----|-2-0-2--2-0-2--2-0----|
---------------|---------------|---------------|-7-------5-----|-7-------5-----|-5-------3-----|
repeat all above (incl. intro) then play this 8 times:
----------------------|----------------------|----------------------|-4---4--4---4--4-2----|-4---4--4---4--4-2----|-2-0-2--2-0-2--2-0----|
then repeat intro, riff 1, riff 2 and riff 3 then:
---------------|---------------|---------------|-----9-----9---| play several times-----7-----7---|-00000000000---|
---------------|---------------|-5------5------|-5------5------|-3------3------|---------------|
then palm mute te lower e string, and he makes a walk there but i cant clearly hear what he's doing. play this 2 times. then strum the Cb chord 2 times and end with:
--------------|--------------|--------------|------5-------|-5--7----7----|--------------|
thats it. have fun. For comments mail me: mennodeman@hotmail.com
Tap to rate this tab
 
# A B C D E F G H I J K L M N O P Q R S T U V W X Y Z