Mourning Beloveth - Disintegrate tab

================================================================================
                        M O U R N I N G   B E L O V E T H

                                        -

                             D I S I N T E G R A T E
================================================================================


                               A MURDEROUS CIRCUS
                            (c) Grau Records - 2005
                        http://www.mourningbeloveth.com/


                              Tune Down 1 & 1/2 Steps
                                  C# F# B E G# C#

                                 Tempo =  70 BPM
                              Time Signature =  6/4



                          -----------------------------
                                 Transcribed by

                                 PADDY MCMULLAN
                           stinkypoohpants@yahoo.co.uk

                                   Version 1.1
                      (Corrections Outlined at Bottom of Tab)
                             -----------------------

                             Tablature Symbols Used:


 P.M...    -  Palm Mute
 p         -  Pull-Off
 h         -  Hammer-On
 (/)       -  Legato Slide (Blank space indicates length of slide)
 \         -  Slide Down to/Down From (Blank space indicates length of slide)
 /         -  Slide Up To/Up From (Blank space indicates length of slide)
 ( )       -  Ghost Note/Tied Note/Implied Note
 ~~        -  Vibrato
 REST      -  Rest, and sustain rest for duration of blank space
 |_3_|     -  Triplet Notes




================================================================================
Intro: Guitar 1 with clean tone (Play once)
================================================================================


* Let notes ring *

||-------------------------|--0----------------|-------------------------|||--------------0----------|-------------------|--------------0----------|||--------5---------5------|-------------------|--------5---------5------|||-----7-----7----------7--|-------------------|-----7-----7----------7--|||--0----------------------|-------------------|--0----------------------|||-------------------------|-------------------|-------------------------|
|--------0---------------|||----------------R- -|||--(7)-----------E- -|||----------------S- -|||----------------T- -|||------------------------||
================================================================================ Riff 1: Guitars 2 and 3 with heavy distortion (Play 3 times) ================================================================================
1 // Let Ring \\ 2||-------------------------| |-------------------------|---------------------|||-------------------------| |-------------------------|---------------------|||-----------5 \ 4 \ | |--2----2-----2-----------|--5--------4---------|||-----------7 \ 5 \ | |--3-------3-----3-----3--|--3--------3------3--|||-----------7 \ 5 \ | |--3----------------0-----|---------------------|||-------------------------| |-------------------------|---------------------| P.M ...
3 4 5 // Let Ring|-----------------------|--------------------||-------------------------||-----------------------|--------------------||--------------0----------||-(5\4)-2---------------|--4--------5--------||--------5---------5------||--3----3---------------|--2--------3--------||-----7-----7----------7--||-----------------------|--2--------3--------||--0----------------------||-----------------------|--------------------||-------------------------| ...
6 7 8 \\|--0----------------|-------------------------|------0--------------------| ||-------------------|--------------0----------|---------------------------| ||-------------------|--------5---------5------|-------------5 \ 4 \ |*||-------------------|-----7-----7----------7--|--(7)--------7 \ 5 \ |*||-------------------|--0----------------------|-------------7 \ 5 \ | ||-------------------|-------------------------|---------------------------| |
Note: the last repeat of this riff only continues as far as bar 4, after which the succeeding riff begins. ================================================================================ Riff 2: Guitars 2 and 3 (Play 4 times, while guitar 4 plays Lead Riff 1) ================================================================================
||-------------------|-------------------|-------------------|||-------------------|-------------------|-------------------|||-------------------|-------------------|-------------------|||-------------------|-------------------|--4----------------|||--2----------------|--4----------------|--2----------------|||--0----------------|--2----------------|-------------------|
|-------------------|-------------------|-------------------| ||-------------------|-------------------|-------------------| ||-------------------|-------------------|-------------------|*||--2----------------|--4----------------|-------------------|*||--0----------------|--2----------------|--4----------------| ||-------------------|-------------------|--2----------------| |
After the 4th repeat, end the riff by playing the following:
|-----------|-------------|||-----------|-------------|||-----------|-------------|||-----------|-------------|||--2--------|--(2)--------|||--0--------|--(0)--------||
================================================================================ Lead Riff 1: Guitar 4 with heavy distortion (Play once through) ================================================================================
1 2||---------------------------|------------------------|||---------------------------|------------------------|||---------------------------|------------------------|||--2~~----------2--4h 5-4-2-|--4~~----------2--4--5--|||---------------------------|------------------------|||---------------------------|------------------------|
3 4 5|------------------------|---------------------------|------------------------||------------------------|---------------------------|------------------------||-----4~~----------4--4--|--(4\2)~~-------(2)/ 5--5--|--5--4~~----------4--4--||--5---------------------|---------------------------|------------------------||------------------------|---------------------------|------------------------||------------------------|---------------------------|------------------------|
6 7 |__3___||-------------------------|----------------------------------||-------------------------|----------------------------------||--4----------------------|----------------------------------||-----4~~--------0-----5--|--5--2~~------2--4h 5-4h 5p (4\2)-||-------------------2-----|----------------------------------||-------------------------|----------------------------------|
.... 8 9|------------------------|------------------------||------------------------|------------------------||------------------------|-----4~~----------4--4--||--4~~----------2--4--5--|--5---------------------||------------------------|------------------------||------------------------|------------------------|
10 |__3___| 11|--------------------------------|-------------------------||--------------------------------|-------------------------||--4h 5p (4\2)~~------(2)/ 5--5--|--5--4~~--------4--7-----||--------------------------------|----------------------7--||--------------------------------|-------------------------||--------------------------------|-------------------------|
12 13 |__3___||-------------------------|----------------------------------||-------------------------|----------------------------------||-------------------------|----------------------------------||--7--4~~--------------5--|--5--2~~------2--4h 5-4h 5p (4\2)-||----------------5--2-----|----------------------------------||-------------------------|----------------------------------|
.... 14 15 16|------------------------|------------------------|---------------------------||------------------------|------------------------|---------------------------||------------------------|-----4~~----------4--4--|--(4\2)~~-------(2)/ 5--5--||--4~~----------2--4--5--|--5---------------------|---------------------------||------------------------|------------------------|---------------------------||------------------------|------------------------|---------------------------|
17 18 19|-----------------------|-------------------------|----------------------------||-----------------------|-------------------------|----------------------------||--5--4~~---------4--4--|--4----------------------|----------------------------||-----------------------|-----4~~--------0-----5--|--5--2~~------2--4h 5-(4\2)-||-----------------------|-------------------2-----|----------------------------||-----------------------|-------------------------|----------------------------|
.... 20 21|------------------------|------------------------||------------------------|------------------------||------------------------|-----4~~----------4--4--||--4~~----------2--4--5--|--5---------------------||------------------------|------------------------||------------------------|------------------------|
22 23|--------------------------------|-------------------------||--------------------------------|-------------------------||--4h 5p (4\2)~~------(2)/ 5--5--|--5--4~~--------4--7-----||--------------------------------|----------------------7--||--------------------------------|-------------------------||--------------------------------|-------------------------|
24 25 26|-------------------------|-----------------------|----------------------|||-------------------------|-----------------------|----------------------|||-------------------------|-----------------------|----------------------|||--7--4~~--------------5--|--5--2~~---------------|----------------------|||----------------5--2-----|-------------5~~-------|--3~~-------2~~-------|||-------------------------|-----------------------|----------------------|| ....
================================================================================ Riff 3: Guitars 2 and 3 (Play once) ================================================================================
| |---------------------|---------------------|---------------------|| |---------------------|---------------------|---------------------||3|---------------------|---------------------|---------------------||/|---------------5--4--|---------------5--4--|---------------5--4--||4|--2------2--2--3--2--|--2------2--2--3--2--|--2------2--2--3--2--|| |--0------0--0--------|--0------0--0--------|--0------0--0--------| .......... .......... ..........
| |--------------------------||| |---------------------R- -|||4|---------------------E- -|||/|---------------5--4--S- -|||4|--3------3-----3--2--T- -||| |--1------1--0-------------|| ..........
================================================================================ Riff 4: Guitars 2 and 3 (Repeats outlined below) Played alongside Lead Riff 2 ================================================================================
| |--------------------|--------------------|--------------------|| |--------------------|--------------------|--------------------||3|--------------------|--------------------|--------------------||/|--2--2--2--2--2--2--|--2--2--2--2--2--2--|--------------------||4|--0--0--0--0--0--0--|--0--0--0--0--0--0--|--3--3--3--3--3--3--|| |--------------------|--------------------|--1--1--1--1--1--1--| ................ ................ ................
|--------------------| ||--------------------| ||--------------------|*||--------------5--4--|*| X 2|--5--5--5--5--3--2--| ||--3--3--3--3--------| | ................
||--------------------|---------------|||--------------------|---------------|||--------------------|---------------|||--2--2--2--2--2--2--|--2------------|||--0--0--0--0--0--0--|--0------------|||--------------------|---------------| ................
|----------------|--------------------| ||----------------|--------------------| ||----------------|--------------------|*||---------5------|--------------------|*| X 8|--3------3------|--5------5--3--2h 3-| ||--1-------------|--3-----------------| |
================================================================================ Lead Riff 2: (Play once through) ================================================================================
1 2 3||--------------------|----------------|---------------------|||--------------------|----------------|---------------------|||--------------------|----------------|--2------0------2p 0-|||--------------------|--2-------------|---------------------|||--0--2--3--5--3--2--|---------0------|---------------------|||--------------------|----------------|---------------------|
4 5 6|-------------------------|-----------------|--------------------------------||-------------------------|-----------------|--------------------------------||-------------------------|-----------------|--------------------------------||--2------3p 2-0--2--2h 3-|--2--------------|--------------------------------||-------------------------|-----------3--2--|--2h 3-0---0--0--2--3--0--2--3--||-------------------------|-----------------|--------------------------------| ...................
7 8 9 10|-------------------|-------------------|----------------|-----------------||-------------------|-------------------|----------------|-----------------||--2------2-4--5--2-|--4h 5-4-----------|--5------4------|-----------------||-------------------|-------------------|----------------|--2------5----2--||-------------------|-------------------|----------------|-----------------||-------------------|-------------------|----------------|-----------------|
11 12 13|-----------------|----------------------|-------------------------||-----------------|----------------------|-----5-3-5--(5/8)---6-5--||-----------------|----------------------|--2----------------------||--3--------2--3--|--(3)/5---7-5~~-------|-------------------------||-----------------|----------------------|-------------------------||-----------------|----------------------|-------------------------|
14 15 16|---------------------------|-----------------------|--------------------||----5----------------------|-----------------------|--------------------||--7---(7\5)-4-5-7-5p 4---5-|--5~~------(2/4)-(4/5)-|--(5/7)-4~~---------||---------------------------|-----------------------|--------------------||---------------------------|-----------------------|--------------------||---------------------------|-----------------------|--------------------|
17 18 19|------------------|-----------------------|-----------------||----------5~~-----|--(5/8)----6----5 h 6--|-----------------||--2~~-------------|-----------------------|--5--------2--4--||------------------|-----------------------|-----------------||------------------|-----------------------|-----------------||------------------|-----------------------|-----------------|
20 21 22|--------------------|------------------------|-------------------||--------------------|------------------------|-------------------||--4h 5-4~~----------|--5-4-2---2-0-2---(2)h0-|-------------------||--------------------|------------------------|--2----(2)/5----2--||--------------------|------------------------|-------------------||--------------------|------------------------|-------------------|
23 24|--------------------------------------|-----------------------------||--------------------------------------|-----------------------------||-----------0-----0--2--0--2--4--2--4--|--5p 4-5h 7-5p 4-5p (4\2)~~--||--3--2--3-----3-----------------------|-----------------------------||--------------------------------------|-----------------------------||--------------------------------------|-----------------------------| ..................................
25 26 27|----------------------|----------------|---------------------||----------------------|----------------|---------------------||----------------------|----------------|--2------0------2p 0-||----------------------|--2-------------|---------------------||--0--2--3--5--3--2h 3-|---------0------|---------------------||----------------------|----------------|---------------------|
28 29 30|-------------------------|-----------------|--------------------------------||-------------------------|-----------------|--------------------------------||-------------------------|-----------------|--------------------------------||--2------3p 2-0--2--2h 3-|--2--------------|--------------------------------||-------------------------|-----------3--2--|--2h 3-0---0--0--2--3--0--2--3--||-------------------------|-----------------|--------------------------------|
................... 31 32|-------------------|---------------------------|||-------------------|---------------------------|||--2------2-4--5--2-|--4h 5-4---4h 5-7-5-4--5\ -|||-------------------|---------------------------|||-------------------|---------------------------|||-------------------|---------------------------||
================================================================================ Riff 5: Guitars 2 and 3 (Play twice) [ Tempo = 80 BPM ] ================================================================================
||--------------------------------------|||--------------------------------------|||--------------------------------------|||--------------------------------------|||--0--0--2--2--3--3--5--5--3--3--2--2--|||--------------------------------------| ..................................
|--------------------------------------|--------------------------------------||--------------------------------------|--------------------------------------||--------------------------------------|--------------------------------------||--------------------------------------|--3--3--2--2--0--0--2--2--0--0--------||--0--0--2--2--3--3--5--5--3--3--2--2--|--------------------------------3--3--||--------------------------------------|--------------------------------------| .................................. ..................................
|--------------------------------------| ||--------------------------------------| ||--------------------------------------|*||--------------------------------------|*||--2--2--3--3--5--5--------3--3--2--2--| ||--------------------3--3--------------| | ..................................
================================================================================ Guitars 2 and 3 play Riff 3 once ================================================================================ ================================================================================ Riff 6: Guitars 2 and 3 (Play 4 times) ================================================================================
| |--------------------------|--------------------------|| |--------------------------|--------------------------||4|--------------------------|--------------------------||/|--------------------------|-----5--5--5--5--4--4--2--||4|--2--2--2--2--2--2--2--2--|--2--3--3--3--3--2--2--0--|| |--0--0--0--0--0--0--0--0--|--0-----------------------| ...................... ......................
|--------------------------|--------------------------| ||--------------------------|--------------------------| ||--------------------------|--------------------------|*||--------------------------|-----7--7--7--7--5--5--5--|*||--5--5--5--5--5--5--5--5--|--5--5--5--5--5--3--3--3--| ||--3--3--3--3--3--3--3--3--|--3-----------------------| | ....... .... ...
On the last repeat, replace the last bar with the following:
|---------------------------|||---------------------------|||---------------------------|||---------------------------|||--5--5--5--5--5--3--(5/7)--|||--3------------------------|| ...
================================================================================ Riff 7: Guitars 2 and 3 (Play once) ================================================================================
||----------------------|-------------------------|-------------------|||----------------------|-------------------------|-------------------|||----------------------|-------------------------|-------------------|||----------------------|-------------------------|-------------------|||--7-----(7)\-2--------|--(2)----2h 3-3--2----0--|--5----------------|||-------------0--------|--(0)--------------------|--3----------------|
|----------------------------|----------------------|-------------------------||----------------------------|----------------------|-------------------------||----------------------------|----------------------|-------------------------||----------------------------|----------------------|-------------------------||-(5)--5--5--5--5--3--5s--7--|--7------(7)\2--------|--(2)----2h 3-3--2----0--||-(3)------------------------|-------------0--------|--(0)--------------------|
|---------------------|--------------------------|||---------------------|--------------------------|||---------------------|--------------------------|||---------------------|--------------------------|||--5------------------|--------3--2-----5--3--2--|||--3---------------0--|--1--3--------3-----------|| ... .... ...
================================================================================ Guitars 2 and 3 play Riff 6 twice, including variation ================================================================================ ================================================================================ Guitars 2 and 3 play Riff 7 once ================================================================================ ================================================================================ Riff 8: Guitars 2 & 3 (Play twice, alongside Lead Riff 3) [ Tempo = 72 BPM ] ================================================================================
||-----------------------|---------------------------|-------------------|||-----------------------|---------------------------|-------------------|||-----------------------|---------------------------|-------------------|||--0--2----2----4----4--|--(4)--5----5--------------|-------------------|||-----------------------|-----------------2----2h 3-|--2----------------|||-----------------------|---------------------------|--0----------------|
|----------------------|-----------------------|---------------------------||----------------------|-----------------------|---------------------------||----------------------|-----------------------|-----------------4----4h 5-||----------------------|--0--2----2----4----4--|--(4)--5----5--------------||--2-------------------|-----------------------|---------------------------||-------3----5----2----|-----------------------|---------------------------|
|-------------------|----------------------| ||-------------------|----------------------| ||-------------------|----------------------|*||-------------------|----------------------|*||--2----------------|--2-------------------| ||--0----------------|-------3----5----2----| |
================================================================================ Lead Riff 3: Guitar 3 (Play twice) ================================================================================
||-----------------------|---------------------------|-----------------------|||-----------------------|---------------------------|-----------------------|||-----------------------|-----------------4----4h 5-|--4~~------------2-2-0-|||--0--2----2----4----4--|--(4)--5----5--------------|-----------------------|||-----------------------|---------------------------|-----------------------|||-----------------------|---------------------------|-----------------------|
|------------------------|-----------------------|---------------------------||------------------------|-----------------------|---------------------------||--2p 0------------------|-----------------------|-----------------4----4h 5-||-------4------5----4----|--0--2----2----4----4--|--(4)--5----5--------------||------------------------|-----------------------|---------------------------||------------------------|-----------------------|---------------------------|
|-----------------------|------------------------| ||-----------------------|------------------------| ||--4~~--------------7-7-|--7-5-4----2--5----4----|*||-----------------------|------------------------|*||-----------------------|------------------------| ||-----------------------|------------------------| |
================================================================================ Riff 9: Guitars 2 and 3 (Play 8 times, alongside Lead Riff 4) ================================================================================
||-----------------------|---------------------------------------|||-----------------------|---------------------------------------|||-----------------------|---------------------------------------|||-----------------------|---------------------------------------|||--2-----------4----2-4-|--5------2--4--5--2--4--5--7--5--4--5--|||--0-----------2----0-2-|--3------0--2--3--0--2--3--5--3--2--3--| ... ............................
|------------------------|--------------------------------------| ||------------------------|--------------------------------------| ||------------------------|--------------------------------------|*||------------------------|--4-----------------------------------|*||--2---------------------|--2-----5-----7-----4-----5--5--4--2--| ||--0---------------0--0--|-----0--3--0--5--0--2--0--3--3--2--0--| | .... ... ... ... ..............
After the first repeat, the last bar is replaced with the following:
|--------------------------------------|||--------------------------------------|||--------------------------------------|||--------------------------------------|||--2-----------------------5--5--4--2--|||-----0--3--0--5--0--2--0--3--3--2--0--|| ... ... ... ..............
After the last repeat, end the song on the following:
||-----------||||-----------||||-----------||||-----------||||--2--------||||--0--------|| ...
================================================================================ Lead Riff 4: (Play 8 times) ================================================================================
||----------------------------|---------------------------------------|||----------------------------|---------------------------------------|||----------------------------|---------------------------------------|||--2-----------4 h5p 4-2-4-|--5------2--4--5--2--4--5--7--5--4--0--|||----------------------------|---------------------------------------|||----------------------------|---------------------------------------| ............................
|__3__||------------------------|---------------------------------| ||------------------------|--------3---5--------------------| ||--4~~----------4----4-4-|--(5\2)-------4--4-5-------------|*||------------------------|----------------------5--4h 5p 4-|*||------------------------|---------------------------------| ||------------------------|---------------------------------| |
After the last repeat, end the song on the following:
|--------------------|||-----R- -|||-----E- -|||--2--S- -|||-----T- -|||--------------------||
================================================================================ End ================================================================================ Tab summary: Intro X 1 Riff 1 X 3 Riff 2 X 4 + Lead Riff 1 X 1 Riff 3 X 1 Riff 4 X 1 + Lead Riff 2 X 1 Riff 5 X 2 Riff 3 X 1 Riff 6 X 4 Riff 7 X 1 Riff 6 X 2 Riff 7 X 1 Riff 8 + Lead Riff 3 X 2 Riff 9 + Lead Riff 4 X 8 END ----------------------- Corrections (05/07/08): ----------------------- * Corrected palm muting in riffs 1 and 4
Tap to rate this tab
 
# A B C D E F G H I J K L M N O P Q R S T U V W X Y Z