Here Today tab with lyrics by Nausea - Easy chords and tabs for guitar

Nausea – Here Today tab

Band: Sworn Enemy
Song: Here Today
tabber: Nick

Tuning is in Eb

|------------------------------------------------------||------------------------------------------------------||------------------------------------------------------||------------------------------------------------------||-2-7---8---7---11---8---7h8p7---5---7-----5---3-----2-||-0---0---0---0----0---0-------0---0---010-3-0-1-111-0-| . . . . . . . ... . ...
|--------------------------------------||--------------------------------------||--------------------------------------||--------------------------10/9-7-10-9-||-------------3332---------8-/7-5-8--7-||-0000000000001110-00000000------------| ............ ........
|--------------------------------||--------------------------------||--------------------------------||------------------------7--10-9-||-------------3332-------5--8--7-||-0000000000001110-000000--------| ............ ......
|--------------------------------------||--------------------------------------||--------------------------------------||--------------------------10/9-7-10-9-||-------------3332---------8-/7-5-8--7-||-0000000000001110-00000000------------| ............ ........
|-----------------------------------||-----------------------------------||-----------------------------------||------------------------7--10-9~~~-||-------------3332-------5--8--7~~~-||-0000000000001110-000000-----------| ............ ......
|-----------------------------------||-----------------------------------||-----------------------------------||-7--10-9~~~-/////-7-10-4~~~-7-10-9-||-5--8--7~~~-/////-5-8--2~~~-5-8--7-||------------/////------------------|
|--------------------------------||--------------------------------||--------------------------------||---------67------------67-------||----7-8------8h11--78------11p8-||-00--0-00--00----00--00--00-----| .. . .. .. .. .. ..
|------------------------------||------------------------------||------------------------------||---------67-------------------||----7-8------8h11--78---63-52-||-00--0-00--00----00--00-41-30-|
|-----------------------------------------------------||-----------------------------------------------------||-----------------------------------------------------||-----------------------------------------------------||-----------------------------------------------63-52-||-0-0-0-0-0-000-0-0-0-0-0-000-0-0-0-0-0-000-0-0-41-30-|
|----------------------------------------------------------||----------------------------------------------------------||----------------------------------------------------------||----------------------------------------------------------||----------------------------------------------------63-52-||-0-0-0-0-0-000-000-0-0-0-0-0-000-000-0-0-0-0-0-0000-41-30-|
|----------------------------||----------------------------||----------------------------||----------------------------||----------------------63-52-||-0000-0000-00-0000-00-41-30-|
|----------------||----------------||----------------||----------------||-2-7-8-7-11-8-7-||-0--0-0-0--0-0--|
Please rate this tab:
x1.0