Because Of You tab with lyrics by Ne-yo - Easy chords and tabs for guitar

Ne-yo – Because Of You tab

Tabbed by: Josh Daley

Tuning: F Bb Eb Ab C F  - ( Half-step up )



Intro:

-----------0----0----2----|------3----0----3----0----|------2----2----2----2----|------0----2----x----0----|------0----0----2----2----|------3-------------------|
-------0-------0-0---|--3----0----3--2-0---|--2----2----2--2-0---|--0----2----0--2-2---|--0----0----0--0-----|--3---------3--------|
Verse:
-------0----0-------------0----0----0----|--3----0----3--------3----0----3----0----|--2----2----2--------2----2----2----0----|--0----2----x--------0----2----x----0----|--0----0----2--------0----0----2----2----|--3------------------3--------------0----|
Pre Chorus:
-------0----0-------------0-------0-0-----|--3----0----3--------3----0----3--2-0-----|--2----2----2--------2----2----2--2-0-----|--0----2----x--------0----2----0--2-2-----|--0----0----2--------0----0----0--0-------|--3------------------3---------3----------|
-------0----0-------------0----0----0----|--3----0----3--------3----0----3----0----|--2----2----2--------2----2----2----0----|--0----2----x--------0----2----x----0----|--0----0----2--------0----0----2----2----|--3------------------3--------------0----|
Chorus:
-------0----0-------------0-------0-0--------0-0-----|--3----0----3--------3----0----3--2-0-----3--2-0-----|--2----2----2--------2----2----2--2-0-----2--2-0-----|--0----2----x--------0----2----0--2-2-----0--2-2-----|--0----0----2--------0----0----0--0-------0--0-------|--3------------------3---------3----------3----------|
Bridge:
------2---------0-----|--3---0-----1---1-----|--4---2-----2---0-----| x 2--2---0-----0---2-----|--3---2-----1---0-----|----------------------|
--4----3-------------|--4----3----3--------|--5----3----4--------|--5----3----2--------|--6----5----3--------|--4----3-------------|
Outro: (Straight after bridge)
-------0----0-------------0----|--3----0----3--------3----0----|--2----2----2--------2----2----|--0----2----x--------0----2----|--0----0----2--------0----0----|--3------------------3---------|
-----0-0-----|--3--0-0-----|--2--2-0-----| x 2--0--2-2-----|--0--0-------|--3----------|
-----0-2-----|--3--3-3-----|--2--3-4-----|--0--3-4-----|--0--0-2-----|--3--3-2-----| Let ring
Please rate this tab:
x1.0