Necrophagist - Only Ash Remains tab version 1

D tuning

F||--9h10h13p10p9----9---------------------------|C||---------------12---10h12p9h10h12p10p9--------|G||---------------------------------------12~----|D||----------------------------------------------|
-----------------------10h13-------------------10h13h14p13h14p13p10h13p10p|--------------10h12h14----------------10h12h14----------------------------|-----11h12h14----------------11h12h14-------------------------------------|--13----------------------------------------------------------------------|
--9h10h13p10p9----9-------------------------------------------------|---------------12---10h12p9h10h12p10p9----9-------------------10h12h|---------------------------------------12---11h12----11h12h14-------|--------------------------------------------------13----------------|
-----10-13-------------------10-13-14----10-13-10/-----|--14----------------10-12-14----------14---------------|-----------11-12-14------------------------------------|-------------------------------------------------------|
--------------------------------------------------|--------------------------------------------------|--7-7-7-7-7-7-7-7-7-7-7-7-7-7-7-7-7-7-7-7-7-7-7-7-|--------------------------------------------------|
------------------------------------------------|------------------------------------------------|--7-7-7-7-7-7-7-12-7-12-7-7-7-7-7-7-7-7-7-7-7-7-|------------------------------------------------|
--------------------------------------------------|--------------------------------------------------|--7-7-7-7-7-7-7-7-7-7-7-7-7-7-7-7-7-7-7-7-7-7-7-7-|--------------------------------------------------|
------------------------------------------------|------------------------------------------------|--7-7-7-7-7-7-7-12-7-12-7-7-7-7-7-7-7-7-7-7-7-7-|------------------------------------------------|
--------------------------------------------10p9h10p|----------------------------------------------------|--7-7-7-7-7-7-7-7-7-7-7-7-7-7-7-7-7-7-7-7-7---------|----------------------------------------------------|
--9h10h13p10p9----9-----------------------------------------------|---------------12---10h12p9h10h12p10p9----9----------------9h10p9-|---------------------------------------12---11h12----11h12--------|--------------------------------------------------13--------------|
--10~---------------|--------------||--------------------|--------------||--8~----------------|--------------||--------------------|--------------||
Tap to rate this tab
 
# A B C D E F G H I J K L M N O P Q R S T U V W X Y Z