Coming Home tab with lyrics by New Found Glory - Easy chords and tabs for guitar

New Found Glory – Coming Home tab

-------------------------------------------------------------------------------
			     Coming Home - New Found Glory
-------------------------------------------------------------------------------
Transcribed by Richnfg

Tuning: Standard (EADGBe)

This isn't my tab. It's the powertab version which I've taken and simplified 'cause I
not everyone uses powertab and it's annoying when the only tab is on that software, so I'm
taking any credit for this. The powertab version is 100%! I've made a few changes to 
it look a bit easier to follow. Well done to Richnfg for transcribing this, awesome job!

Intro Gtr I|------------------------------------|--------------------------------------||------------------------------------|--------------------------------------||------------------------------------|--------------------------------------||-11-11-11-x-x-10-10-10-x-x-11-11-11-|-x-x-11-11-11-x-x-11-x-x-11h13---x-x--||--9--9--9-x-x-11-11-11-x-x-11-11-11-|-x-x-11-11-11-x-x-13-x-x-13------x-x--||------------------------------------|--------------------------------------|
|------------------------------------|-------------------------------------|||------------------------------------|-------------------------------------|||------------------------------------|-------------------------------------|||-11-11-11-x-x-10-10-10-x-x-11-11-11-|-x-x-11-11-11-x-x-11-x-x-11h13---x-x-|||--9--9--9-x-x-11-11-11-x-x-11-11-11-|-x-x-11-11-11-x-x-13-x-x-13------x-x-|||------------------------------------|-------------------------------------||
Gtr I|-------------------------------|---------------------------------||-------------------------------|---------------------------------||-13----h15--p13-----x---10-----|h11--p10-----x---11p10-----------||-------------------------------|-------------------------13p11---||-------------------------------|---------------------------------||-------------------------------|---------------------------------|
|
| Gtr II|-------------------------------|---------------------------------||-------------------------------|---------------------------------||-------------------------6-6-6-|--x-x--6-6-6-x-x-----------------||--4-4-4--x-x--6-6-6-x-x--6-6-6-|--x-x--6-6-6-x-x-----------------||--4-4-4--x-x--3-3-3-x-x--4-4-4-|--x-x--4-4-4-x-x--4--x-x--4--x-x-||--2-2-2--x-x--4-4-4-x-x--------|------------------6--x-x--6--x-x-|
|-------------------------------|---------------------------------|||-------------------------------|---------------------------------|||-13----h15--p13-----x---10-----|h11--p10-----x---11p10-----------|||-------------------------------|-------------------------13p11---|||-------------------------------|---------------------------------|||-------------------------------|---------------------------------||
|
|-------------------------------|---------------------------------|||-------------------------------|---------------------------------|||-------------------------6-6-6-|--x-x--6-6-6-x-x-----------------|||--4-4-4--x-x--6-6-6-x-x--6-6-6-|--x-x--6-6-6-x-x-----------------|||--4-4-4--x-x--3-3-3-x-x--4-4-4-|--x-x--4-4-4-x-x--4--x-x--4--x-x-|||--2-2-2--x-x--4-4-4-x-x--------|------------------6--x-x--6--x-x-||
Verse Gtr I|--------------------|---------------------------||--------------------|---------------------------||--------------------|---------------------------||-(11)---------------|---------------------------||--------------------|---------------------------||--------------------|---------------------------|
| | Gtr II |
|--------------------|-----------------------------||--------------------|-----------------------------||--------------------|-----------------------------||--------------------|--6-6-6-6--------------------||---4--4-4--3-3-3----|--4-4-4-4--4-4-4-4h6---x-x---||---2--2-2--4-4-4----|-----------6-6-6-6-----x-x---| PM----------| PM-------------------------|
Gtr II||------------------|-------------------------|||o-----------------|-------------------------|||------------------|-------------------------|||------------------|-------------------------|||o-4-4-4--3-3-3----|--3-3-3--4-4-4-4h6---x-x-|||--2-2-2--4-4-4----|--4-4-4--6-6-6-6-----x-x-|
Gtr I|-------------------|----------------------------||-------------------|----------------------------||-6-----6---6----6--|-6-----6----6-x-x-6-----x-x-||-x-----------------|------------x-----x---------||-4-----------------|------------4-----4---------||-------------------|----------------------------|
| | Gtr II |
|-------------------|------------------------------||-------------------|------------------------------||-------------------|------------------------------||-------------------|---6-6-6-6--------------------||-4-4-4---3-3-3-----|---4-4-4-4--4-4-4-4h6---x-x---||-2-2-2---4-4-4-----|------------6-6-6-6-----x-x---| PM----------| PM-------------------------|
|----------------------|-------------------------------|||----------------------|-------------------------------|||-6-----6---6-------6--|-(6)-6-6-6-x-x-----------------|||-x-----------------6--|-(6)-6-6-6-x-x-----------------|||-4-----------------4--|-(4)-4-4-4-x-x-4-x-x-4h6---x-x-|||----------------------|---------------6-x-x-6-----x-x-||
| |
|----------------------|-------------------------------|||----------------------|-------------------------------|||-------------------6--|-(6)-6-6-6-x-x-----------------|||-------------------6--|-(6)-6-6-6-x-x-----------------|||-4-4-4---3-3-3-x-x-4--|-(4)-4-4-4-x-x-4-x-x-4h6---x-x-|||-2-2-2---4-4-4-x-x----|---------------6-x-x-6-----x-x-|| PM--| PM--|
Chorus Gtrs I, II|---------------------------|---------------------------------||---------------------------|---------------------------------||---------------------6-6-6-|--x--x-6-6-6-x-x-----------------||-4-4-4-x-x-6-6-6-x-x-6-6-6-|--x--x-6-6-6-x-x-----------------||-4-4-4-x-x-3-3-3-x-x-4-4-4-|--x--x-4-4-4-x-x-4-x-x-4h6---x-x-||-2-2-2-x-x-4-4-4-x-x-------|-----------------6-x-x-6-----x-x-|
|---------------------------|---------------------------------||---------------------------|---------------------------------||---------------------6-6-6-|--x--x-6-6-6-x-x-----------------||-4-4-4-x-x-6-6-6-x-x-6-6-6-|--x--x-6-6-6-x-x-----------------||-4-4-4-x-x-3-3-3-x-x-4-4-4-|--x--x-4-4-4-x-x-4-x-x-4h6---x-x-||-2-2-2-x-x-4-4-4-x-x-------|-----------------6-x-x-6-----x-x-|
|---------------------------|---------------------------------||---------------------------|---------------------------------||---------------------6-6-6-|--x--x-6-6-6-x-x-----------------||-4-4-4-x-x-6-6-6-x-x-6-6-6-|--x--x-6-6-6-x-x-----------------||-4-4-4-x-x-3-3-3-x-x-4-4-4-|--x--x-4-4-4-x-x-4-x-x-4h6---x-x-||-2-2-2-x-x-4-4-4-x-x-------|-----------------6-x-x-6-----x-x-|
|------------------------|--------------|||------------------------|--------------|||---------------------6--|-(6)----------|||-4-4-4-x-x-6-6-6-x-x-6--|-(6)----------|||-4-4-4-x-x-3-3-3-x-x-4--|-(4)----------|||-2-2-2-x-x-4-4-4-x-x----|------P.S.----||
Post-Chorus Gtrs I, II|-----------------|-------------------|-----------------|-------------------||-----------------|-------------------|-----------------|-------------------||-----------------|-----------6-6-----|-----------------|-----------5-5-6-6-||-4-4-4-6-6-6-6-6-|--8--8-6-6-6-6-6-6-|-4-4-4-6-6-6-6-6-|--8--8-6-6-6-6-6-6-||-4-4-4-6-6-6-6-6-|--8--8-6-6-4-4-6-6-|-4-4-4-6-6-6-6-6-|--8--8-6-6-3-3-4-4-||-2-2-2-4-4-4-4-4-|--6--6-4-4-----4-4-|-2-2-2-4-4-4-4-4-|--6--6-4-4---------|
1.------------------------------------------¬ Gtr II|-----------------|-------------------------------||-----------------|---------------------------o---||-----------------|-------------------------------||-----------------|--6-6-6-6----------------------||-4-4-4--3-3-3----|--4-4-4-4--4-4-4-4h6---x-x-o---||-2-2-2--4-4-4----|-----------6-6-6-6-----x-x-----| PM---------| PM---------------------------|
2.-------------¬ Gtrs I, II|-----------------|-------------------||-----------------|-------------------||-----------------|-----------6-6-----||-4-4-4-6-6-6-6-6-|--8--8-6-6-6-6-6-6-||-4-4-4-6-6-6-6-6-|--8--8-6-6-4-4-6-6-||-2-2-2-4-4-4-4-4-|--6--6-4-4-----4-4-|
Gtr II|-----------------|----------------------|||-----------------|----------------------|||-----------------|-----------5-5-6--6---|||-4-4-4-6-6-6-6-6-|--8--8-6-6-6-6-6--6---|||-4-4-4-6-6-6-6-6-|--8--8-6-6-3-3-4--4---|||-2-2-2-4-4-4-4-4-|--6--6-4-4------------||
Gtr I|-----------------|----------------------|||-----------------|----------------------|||-----------------|-------------1-------/|||-----------------|----------------------|||-----------------|----------------------|||-----------------|----------------------||
Interlude Gtr II
|---------------------|------------------------------------||---------------------|------------------------------------||---------------------|------------------------------------||---------------------|------------------------------------||--4-4-4---3-3-3------|-------3-3-3---4--4-4--4h6----x-x---||--2-2-2---4-4-4------|-------4-4-4---6--6-6--6------x-x---|| PM--| PM--| PM--| PM-------------------|
|
| Gtr I|---------------------|----------------------------------||---------------------|----------------------------------||-13------------------|--------------11p10---------------||---------10-----h11--|-(11)-----------------13----p11---||---------------------|------11--------------------------||---------------------|----------------------------------|
|---------------------|-------------------------------------||---------------------|-------------------------------------||---------------------|-------------------------------------||---------------------|-------------------------------------||--4-4-4---3-3-3------|-------3-3-3---4--4-4--4h6----x-x----||--2-2-2---4-4-4------|-------4-4-4---6--6-6--6------x-x----|| PM--| PM--| PM--| PM--------------------|
|
|---------------------|----------------------------------|||---------------------|----------------------------------|||-13------------------|--------------11p10---------------|||---------10-----h11--|-(11)-----------------13----p11---|||---------------------|------11--------------------------|||---------------------|----------------------------------||
Verse|-------------------------|---------------------------||-------------------------|---------------------------||-------------------------|---------------------------||-------------------------|--6-6-6--------------------||---4--4-4--3-3-3---------|--4-4-4--4-4-4-4h6---x-x---||---2--2-2--4-4-4---------|---------6-6-6-6-----x-x---|| PM----------| PM-----------------------|
|
|-------------------------|-------------------------||-------------------------|-------------------------||-------------------------|-------------------------||-(11)-------------(11)\--|-------------------------||-------------------------|-------------------------||-------------------------|-------------------------|
Gtr II|-----------------|---------------------------||-----------------|---------------------------||-----------------|---------------------------||-----------------|---------------------------||-4-4-4--3-3-3----|--3-3-3--4-4-4-4h6---x-x---||-2-2-2--4-4-4----|--4-4-4--6-6-6-6-----x-x---| PM---------| PM-----------------------|
Gtr I|-------------------|--------------------------||-------------------|--------------------------||-6-----6---6----6--|-6---6----6-x-x-6-----x-x-||-x-----------------|----------x-----x---------||-4-----------------|----------4-----4---------||-------------------|--------------------------|
|
| Gtr II|-------------------|----------------------------||-------------------|----------------------------||-------------------|----------------------------||-------------------|---6-6-6--------------------||-4-4-4---3-3-3-----|---4-4-4--4-4-4-4h6---x-x---||-2-2-2---4-4-4-----|----------6-6-6-6-----x-x---| PM--| PM--| PM--| PM----------------|
|----------------------|-----------14--|||----------------------|---------------|||-6-----6---6-------6--|-(6)\----------|||-x-----------------x--|-(x)\----------|||-4-----------------4--|-(4)\----------|||----------------------|---------------||
| |
|----------------------|---------------|||----------------------|---------------|||-------------------6--|-(6)\----------|||-------------------6--|-(6)\----------|||-4-4-4---3-3-3-x-x-4--|-(4)\----------|||-2-2-2---4-4-4-x-x----|---------------|| PM--| PM--|
|-------------------------------|---------------------------------||-------------------------------|---------------------------------||-13----h15--p13-----x---10-----|h11--p10-----x---11p10-----------||-------------------------------|-------------------------13p11---||-------------------------------|---------------------------------||-------------------------------|---------------------------------|
|
|-------------------------------|---------------------------------||-------------------------------|---------------------------------||-------------------------6-6-6-|--x-x--6-6-6-x-x-----------------||--4-4-4--x-x--6-6-6-x-x--6-6-6-|--x-x--6-6-6-x-x-----------------||--4-4-4--x-x--3-3-3-x-x--4-4-4-|--x-x--4-4-4-x-x--4--x-x--4--x-x-||--2-2-2--x-x--4-4-4-x-x--------|------------------6--x-x--6--x-x-|
|-------------------------------|-------------------------------------|||-------------------------------|-14----------------------------------|||-13----h15--p13-----x----------|------13-----/15---(15)p13---11p10---|||------------------------11-----|-------------------------------------|||-------------------------------|-------------------------------------|||-------------------------------|-------------------------------------||
|
|-------------------------------|-------------------------------------|||-------------------------------|-------------------------------------|||-------------------------6-6-6-|--x-x--6-6-6---x-x-------------------|||--4-4-4--x-x--6-6-6-x-x--6-6-6-|--x-x--6-6-6---x-x-------------------|||--4-4-4--x-x--3-3-3-x-x--4-4-4-|--x-x--4-4-4---x-x---4---x-x--4--x-x-|||--2-2-2--x-x--4-4-4-x-x--------|---------------------6---x-x--6--x-x-||
Chorus Gtrs I, II|---------------------------|---------------------------------||---------------------------|---------------------------------||---------------------6-6-6-|--x--x-6-6-6-x-x-----------------||-4-4-4-x-x-6-6-6-x-x-6-6-6-|--x--x-6-6-6-x-x-----------------||-4-4-4-x-x-3-3-3-x-x-4-4-4-|--x--x-4-4-4-x-x-4-x-x-4h=6--x-x-||-2-2-2-x-x-4-4-4-x-x-------|-----------------6-x-x-6-(6)-x-x-|
|---------------------------|---------------------------------||---------------------------|---------------------------------||---------------------6-6-6-|--x--x-6-6-6-x-x-----------------||-4-4-4-x-x-6-6-6-x-x-6-6-6-|--x--x-6-6-6-x-x-----------------||-4-4-4-x-x-3-3-3-x-x-4-4-4-|--x--x-4-4-4-x-x-4-x-x-4h6---x-x-||-2-2-2-x-x-4-4-4-x-x-------|-----------------6-x-x-6-----x-x-|
Gtr II|------------------------------|---------------------------------------||------------------------------|---------------------------------------||------------------------6-6-6-|---x--x--6-6-6-x-x---------------------||--4-4-4-x-x--6-6-6-x-x--6-6-6-|---x--x--6-6-6-x-x---------------------||--4-4-4-x-x--3-3-3-x-x--4-4-4-|---x--x--4-4-4-x-x--4--x-x--4h=6---x-x-||--2-2-2-x-x--4-4-4-x-x--------|--------------------6--x-x--6-(6)--x-x-|
|
| Gtr I|------------------------------|---------------------------------------||------------------------------|---------------------------------------||-13---------------------------|-------------------11p10---------------||------------10--------h11-----|-(11)----------------------13----p11---||------------------------------|--------11-----------------------------||------------------------------|---------------------------------------|
|---------------------------|--------|||---------------------------|--------|||------------------------6--|--------|||---4--4-4-x-x-6-6-6-x-x-6--|--------|||---4--4-4-x-x-3-3-3-x-x-4--|--------|||---2--2-2-x-x-4-4-4-x-x----|P.S.----||
| |
|---------------------------|--------|||---------------------------|--------|||---------------------------|--------|||-(11)----------------------|--------|||---------------------------|--------|||---------------------------|P.S.----||
Outro Gtrs I, II||------------------|-------------------|||o-----------------|-------------------|||------------------|-----------6-6-----|||--4-4-4-6-6-6-6-6-|--8--8-6-6-6-6-6-6-|||o-4-4-4-6-6-6-6-6-|--8--8-6-6-4-4-6-6-|||--2-2-2-4-4-4-4-4-|--6--6-4-4-----4-4-|
4x|-----------------|---------------------|||-----------------|--------------------o|||-----------------|-----------5-5-6-6---|||-4-4-4-6-6-6-6-6-|--8--8-6-6-6-6-6-6---|||-4-4-4-6-6-6-6-6-|--8--8-6-6-3-3-4-4--o|||-2-2-2-4-4-4-4-4-|--6--6-4-4-----------||
Gtr II||------------------|-------------------|||o-----------------|-------------------|||------------------|-----------6-6-----|||--4-4-4-6-6-6-6-6-|--8--8-6-6-6-6-6-6-|||o-4-4-4-6-6-6-6-6-|--8--8-6-6-4-4-6-6-|||--2-2-2-4-4-4-4-4-|--6--6-4-4-----4-4-|
| |
| Gtr I||------------------|-------------------|||o-----------------|-------------------|||--6---6---6---6---|--6----6---6---6---|||--x---x---x---x---|--x----x---x---x---|||o-4---4---4---4---|--4----4---4---4---|||------------------|-------------------|
4x|-----------------|-----------------------------|||-----------------|----------------------------o|||-----------------|---------------5---5-6-6-----|||-4-4-4-6-6-6-6-6-|--8----8-6-6---6---6-6-6-----|||-4-4-4-6-6-6-6-6-|--8----8-6-6---3---3-4-4----o|||-2-2-2-4-4-4-4-4-|--6----6-4-4-----------------||
|
| 4x|-----------------|-----------------------------|||-----------------|----------------------------o|||-6---6---6---6---|-------6-6---------6-6-------|||-x---x---x---x---|--x--x-x-x-x-x-x-x-x-x-x-x---|||-4---4---4---4---|--x--x-4-4-x-x-x-x-4-4-x-x--o|||-----------------|-----------------------------||
| / Slide Up | \ Slide Down | x Mute Note | h Hammer-on | p Pull-off | 1.-¬ First time on repeat | 2.-¬ Second time on repeat | ||o o|| Repeat | ||o o|| | P.S. Pick Scratch
Please rate this tab:
x1.0