Nickelback - How You Remind Me tab

Nickelback - How you remind me.
Transcription by Justin Brymer (jcb@optushome.com.au)

---3-3--x-x--3-3--x-x--1-1--x-x--1-1--x-x------3-3--x-x--3-3--x-x--1-1--x-x--1-1--x-x------5-5--x-x--5-5--x-x--3-3--x-x--3-3--x-x------5-5--x-x--5-5--x-x--3-3--x-x--3-3--x-x------3-3--x-x--3-3--x-x--1-1--x-x--1-1--x-x------x-x--x-x--3-3--x-x--x-x--x-x--1-1--x-x---Never made it as a wise manI couldn't cut it as a poor man stealing
---3-3--x-x--3-3--x-x--1-1--x-x--1-1--x-x------3-3--x-x--3-3--x-x--1-1--x-x--1-1--x-x------5-5--x-x--5-5--x-x--3-3--x-x--3-3--x-x------5-5--x-x--5-5--x-x--3-3--x-x--3-3--x-x------3-3--x-x--3-3--x-x--1-1--x-x--1-1--x-x------x-x--x-x--3-3--x-x--x-x--x-x--1-1--x-x---
Tired of living like a blind manI'm sick of sight without a sense of feeling *ring---3-3--x-x--3-3--x-x--1-------3-3--x-x--3-3--x-x--1-------5-5--x-x--5-5--x-x--3-------5-5--x-x--5-5--x-x--3-------3-3--x-x--3-3--x-x--1-------x-x--x-x--3-3--x-x--x----And this is how you remind me
---3-3--x-x--3-3--x-x--1-1--x-x--1-1--x-x------3-3--x-x--3-3--x-x--1-1--x-x--1-1--x-x------5-5--x-x--5-5--x-x--3-3--x-x--3-3--x-x------5-5--x-x--5-5--x-x--3-3--x-x--3-3--x-x------3-3--x-x--3-3--x-x--1-1--x-x--1-1--x-x------x-x--x-x--3-3--x-x--x-x--x-x--1-1--x-x---This is how you remind meOf what I really am
---3-3--x-x--3-3--x-x--1-1--x-x--1-1-1-1------3-3--x-x--3-3--x-x--1-1--x-x--1-1-1-1------5-5--x-x--5-5--x-x--3-3--x-x--3-3-3-3------5-5--x-x--5-5--x-x--3-3--x-x--3-3-3-3------3-3--x-x--3-3--x-x--1-1--x-x--1-1-1-1------x-x--x-x--3-3--x-x--x-x--x-x--1-1-1-1---This is how you remind meOf what I really am
---3-3--x-x--x-x--x-x--1-1--x-x--x--x--x-x-----3-3--x-x--x-x--x-x--1-1--x-x--x--x--x-x-----5-5--x-x--x-x--x-x--3-3--x-x--x--x--x-x-----5-5--x-x--1-1--x-x--3-3--x-x--3--3--x-x-----3-3--x-x--1-1--x-x--1-1--x-x--3--3--x-x-----x-x--x-x--x-x--x-x--x-x--x-x-(1)(1)-x-x--It's not like you to say sorryI was waiting on a different story
---3-3--x-x--x-x--x-x--1-1--x-x--x--x--x-x-----3-3--x-x--x-x--x-x--1-1--x-x--x--x--x-x-----5-5--x-x--x-x--x-x--3-3--x-x--x--x--x-x-----5-5--x-x--1-1--x-x--3-3--x-x--3--3--x-x-----3-3--x-x--1-1--x-x--1-1--x-x--3--3--x-x-----x-x--x-x--x-x--x-x--x-x--x-x-(1)(1)-x-x--This time I'm mistakenFor handing you a heart worth breaking
P.M P.M---3-3--x--x-x--x---1--1---x-x---x--x--x-x-----3-3--x--x-x--x---1--1---x-x---x--x--x-x-----5-5--x--x-x--x---3--3---x-x---x--x--x-x-----5-5--x--1-1--x---3--3---x-x---3--3--x-x-----3-3--x--1-1--x---1--1---x-x---3--3--x-x-----x-x--x--x-x--x---x--x---x-x--(1)(1)-x-x--Yeah I've been wrong I've been downInto the bottom of every bottle
---3-3--x-x--x-x--x-x--1-1--x-x--x--x--x-x-----3-3--x-x--x-x--x-x--1-1--x-x--x--x--x-x-----5-5--x-x--x-x--x-x--3-3--x-x--x--x--x-x-----5-5--x-x--1-1--x-x--3-3--x-x--3--3--x-x-----3-3--x-x--1-1--x-x--1-1--x-x--3--3--x-x-----x-x--x-x--x-x--x-x--x-x--x-x-(1)(1)-x-x--These five words in my headScream are we having fun yet?
---3-3--x-x--x-x--x-x--1-1--x-x--x--x--x-x-----3-3--x-x--x-x--x-x--1-1--x-x--x--x--x-x-----5-5--x-x--x-x--x-x--3-3--x-x--x--x--x-x-----5-5--x-x--1-1--x-x--3-3--x-x--3--3--x-x-----3-3--x-x--1-1--x-x--1-1--x-x--3--3--x-x-----x-x--x-x--x-x--x-x--x-x--x-x-(1)(1)-x-x--Yeah, yeah, yeah no, no
---3-3--x-x--x-x--x-x--1-1--x-x--x--x--x-x-----3-3--x-x--x-x--x-x--1-1--x-x--x--x--x-x-----5-5--x-x--x-x--x-x--3-3--x-x--x--x--x-x-----5-5--x-x--1-1--x-x--3-3--x-x--3--3--x-x-----3-3--x-x--1-1--x-x--1-1--x-x--3--3--x-x-----x-x--x-x--x-x--x-x--x-x--x-x-(1)(1)-x-x--Yeah, yeah, yeah no, no
---3-3--x-x--3-3--x-x--1-1--x-x--1-1--x-x------3-3--x-x--3-3--x-x--1-1--x-x--1-1--x-x------5-5--x-x--5-5--x-x--3-3--x-x--3-3--x-x------5-5--x-x--5-5--x-x--3-3--x-x--3-3--x-x------3-3--x-x--3-3--x-x--1-1--x-x--1-1--x-x------x-x--x-x--3-3--x-x--x-x--x-x--1-1--x-x---It's not like you didn't know thatI said I love you and I swear I still do
---3-3--x-x--3-3--x-x--1-1--x-x--1-1--x-x------3-3--x-x--3-3--x-x--1-1--x-x--1-1--x-x------5-5--x-x--5-5--x-x--3-3--x-x--3-3--x-x------5-5--x-x--5-5--x-x--3-3--x-x--3-3--x-x------3-3--x-x--3-3--x-x--1-1--x-x--1-1--x-x------x-x--x-x--3-3--x-x--x-x--x-x--1-1--x-x---And it must have been so badCause living with him must have damn near killed you
---3-3--x-x--3-3--x-x--1-1--x-x--1-1--x-x------3-3--x-x--3-3--x-x--1-1--x-x--1-1--x-x------5-5--x-x--5-5--x-x--3-3--x-x--3-3--x-x------5-5--x-x--5-5--x-x--3-3--x-x--3-3--x-x------3-3--x-x--3-3--x-x--1-1--x-x--1-1--x-x------x-x--x-x--3-3--x-x--x-x--x-x--1-1--x-x---And this is how you remind meOf what I really am
---3-3--x-x--3-3--x-x--1-1--x-x--1-1--x-x------3-3--x-x--3-3--x-x--1-1--x-x--1-1--x-x------5-5--x-x--5-5--x-x--3-3--x-x--3-3--x-x------5-5--x-x--5-5--x-x--3-3--x-x--3-3--x-x------3-3--x-x--3-3--x-x--1-1--x-x--1-1--x-x------x-x--x-x--3-3--x-x--x-x--x-x--1-1--x-x---This is how you remind meOf what I really am
---3-3--x-x--x-x--x-x--1-1--x-x--x--x--x-x-----3-3--x-x--x-x--x-x--1-1--x-x--x--x--x-x-----5-5--x-x--x-x--x-x--3-3--x-x--x--x--x-x-----5-5--x-x--1-1--x-x--3-3--x-x--3--3--x-x-----3-3--x-x--1-1--x-x--1-1--x-x--3--3--x-x-----x-x--x-x--x-x--x-x--x-x--x-x-(1)(1)-x-x--It's not like you to say sorryI was waiting on a different story
---3-3--x-x--x-x--x-x--1-1--x-x--x--x--x-x-----3-3--x-x--x-x--x-x--1-1--x-x--x--x--x-x-----5-5--x-x--x-x--x-x--3-3--x-x--x--x--x-x-----5-5--x-x--1-1--x-x--3-3--x-x--3--3--x-x-----3-3--x-x--1-1--x-x--1-1--x-x--3--3--x-x-----x-x--x-x--x-x--x-x--x-x--x-x-(1)(1)-x-x--This time I'm mistakenFor handing you a heart worth breaking
P.M P.M---3-3--x--x-x--x---1--1---x-x---x--x--x-x-----3-3--x--x-x--x---1--1---x-x---x--x--x-x-----5-5--x--x-x--x---3--3---x-x---x--x--x-x-----5-5--x--1-1--x---3--3---x-x---3--3--x-x-----3-3--x--1-1--x---1--1---x-x---3--3--x-x-----x-x--x--x-x--x---x--x---x-x--(1)(1)-x-x--Yeah I've been wrong I've been downInto the bottom of every bottle
---3-3--x-x--x-x--x-x--1-1--x-x--x--x--x-x-----3-3--x-x--x-x--x-x--1-1--x-x--x--x--x-x-----5-5--x-x--x-x--x-x--3-3--x-x--x--x--x-x-----5-5--x-x--1-1--x-x--3-3--x-x--3--3--x-x-----3-3--x-x--1-1--x-x--1-1--x-x--3--3--x-x-----x-x--x-x--x-x--x-x--x-x--x-x-(1)(1)-x-x--These five words in my headScream are we having fun yet?
---3-3--x-x--x-x--x-x--1-1--x-x--x--x--x-x-----3-3--x-x--x-x--x-x--1-1--x-x--x--x--x-x-----5-5--x-x--x-x--x-x--3-3--x-x--x--x--x-x-----5-5--x-x--1-1--x-x--3-3--x-x--3--3--x-x-----3-3--x-x--1-1--x-x--1-1--x-x--3--3--x-x-----x-x--x-x--x-x--x-x--x-x--x-x-(1)(1)-x-x--Yeah, yeah, yeah no, no
---3-3--x-x--x-x--x-x--1-1--x-x--x--x--x-x-----3-3--x-x--x-x--x-x--1-1--x-x--x--x--x-x-----5-5--x-x--x-x--x-x--3-3--x-x--x--x--x-x-----5-5--x-x--1-1--x-x--3-3--x-x--3--3--x-x-----3-3--x-x--1-1--x-x--1-1--x-x--3--3--x-x-----x-x--x-x--x-x--x-x--x-x--x-x-(1)(1)-x-x--Yeah, yeah, yeah no, no
---3-3--x-x--x-x--x-x--1-1--x-x--x--x--x-x-----3-3--x-x--x-x--x-x--1-1--x-x--x--x--x-x-----5-5--x-x--x-x--x-x--3-3--x-x--x--x--x-x-----5-5--x-x--1-1--x-x--3-3--x-x--3--3--x-x-----3-3--x-x--1-1--x-x--1-1--x-x--3--3--x-x-----x-x--x-x--x-x--x-x--x-x--x-x-(1)(1)-x-x--Yeah, yeah, yeah no, no
---3-3--x-x--x-x--x-x--1-1--x-x--x--x--x-x-----3-3--x-x--x-x--x-x--1-1--x-x--x--x--x-x-----5-5--x-x--x-x--x-x--3-3--x-x--x--x--x-x-----5-5--x-x--1-1--x-x--3-3--x-x--3--3--x-x-----3-3--x-x--1-1--x-x--1-1--x-x--3--3--x-x-----x-x--x-x--x-x--x-x--x-x--x-x-(1)(1)-x-x--Yeah, yeah, yeah no, no
*ring--3-----3-----5-----5-----3-----x---
---3-3--x-x--3-3--x-x--1-1--x-x--1-1--x-x------3-3--x-x--3-3--x-x--1-1--x-x--1-1--x-x------5-5--x-x--5-5--x-x--3-3--x-x--3-3--x-x------5-5--x-x--5-5--x-x--3-3--x-x--3-3--x-x------3-3--x-x--3-3--x-x--1-1--x-x--1-1--x-x------x-x--x-x--3-3--x-x--x-x--x-x--1-1--x-x---
* * * *ring---3---3---1---1-------3---3---1---1-------5---5---3---3-------5---5---3---3-------3---3---1---1-------x---3---x---1----Never made it as a wise manI couldn't cut it as a poor man stealing
*ring---3---3---1-------3---3---1-------5---5---3-------5---5---3-------3---3---1-------x---3---x----And this is how you remind me
*ring---3---3---1-------3---3---1-------5---5---3-------5---5---3-------3---3---1-------x---3---x----This is how you remind me
---3-3--x-x--3-3--x-x--1-1--x-x--1-1--x-x------3-3--x-x--3-3--x-x--1-1--x-x--1-1--x-x------5-5--x-x--5-5--x-x--3-3--x-x--3-3--x-x------5-5--x-x--5-5--x-x--3-3--x-x--3-3--x-x------3-3--x-x--3-3--x-x--1-1--x-x--1-1--x-x------x-x--x-x--3-3--x-x--x-x--x-x--1-1--x-x---And this is how you remind meOf what I really am
---3-3--x-x--3-3--x-x--1-1--x-x--1-1--x-x------3-3--x-x--3-3--x-x--1-1--x-x--1-1--x-x------5-5--x-x--5-5--x-x--3-3--x-x--3-3--x-x------5-5--x-x--5-5--x-x--3-3--x-x--3-3--x-x------3-3--x-x--3-3--x-x--1-1--x-x--1-1--x-x------x-x--x-x--3-3--x-x--x-x--x-x--1-1--x-x---This is how you remind meOf what I really am
---3-3--x-x--x-x--x-x--1-1--x-x--x--x-------3-3--x-x--x-x--x-x--1-1--x-x--x--x-------5-5--x-x--x-x--x-x--3-3--x-x--x--x-------5-5--x-x--1-1--x-x--3-3--x-x--3--3-------3-3--x-x--1-1--x-x--1-1--x-x--3--3-------x-x--x-x--x-x--x-x--x-x--x-x-(1)(1)---It's not like you to say sorryI was waiting on a different story
P.M---3-3--x-x--x-x--x-x--1--x------3-3--x-x--x-x--x-x--1--x------5-5--x-x--x-x--x-x--3--x------5-5--x-x--1-1--x-x--3--x------3-3--x-x--1-1--x-x--1--x------x-x--x-x--x-x--x-x--x--x---This time I'm mistakenFor handing you a heart worth breaking
P.M P.M---3-3--x--x-x--x---1--1---x-x---x--x-------3-3--x--x-x--x---1--1---x-x---x--x-------5-5--x--x-x--x---3--3---x-x---x--x-------5-5--x--1-1--x---3--3---x-x---3--3-------3-3--x--1-1--x---1--1---x-x---3--3-------x-x--x--x-x--x---x--x---x-x--(1)(1)---Yeah I've been wrong I've been downInto the bottom of every bottle
---3-3--x-x--x-x--x-x--1-1--x-x--x--x--x-x-----3-3--x-x--x-x--x-x--1-1--x-x--x--x--x-x-----5-5--x-x--x-x--x-x--3-3--x-x--x--x--x-x-----5-5--x-x--1-1--x-x--3-3--x-x--3--3--x-x-----3-3--x-x--1-1--x-x--1-1--x-x--3--3--x-x-----x-x--x-x--x-x--x-x--x-x--x-x-(1)(1)-x-x--These five words in my headScream are we having fun yet?
---3-3--x-x--x-x--x-x--1-1--x-x--x--x--x-x-----3-3--x-x--x-x--x-x--1-1--x-x--x--x--x-x-----5-5--x-x--x-x--x-x--3-3--x-x--x--x--x-x-----5-5--x-x--1-1--x-x--3-3--x-x--3--3--x-x-----3-3--x-x--1-1--x-x--1-1--x-x--3--3--x-x-----x-x--x-x--x-x--x-x--x-x--x-x-(1)(1)-x-x--Yeah, yeahAre we having fun yet?
---3-3--x-x--x-x--x-x--1-1--x-x--x--x--x-x-----3-3--x-x--x-x--x-x--1-1--x-x--x--x--x-x-----5-5--x-x--x-x--x-x--3-3--x-x--x--x--x-x-----5-5--x-x--1-1--x-x--3-3--x-x--3--3--x-x-----3-3--x-x--1-1--x-x--1-1--x-x--3--3--x-x-----x-x--x-x--x-x--x-x--x-x--x-x-(1)(1)-x-x--Yeah, yeahAre we having fun yet?
---3-3--x-x--x-x--x-x--1-1--x-x--x--x--x-x-----3-3--x-x--x-x--x-x--1-1--x-x--x--x--x-x-----5-5--x-x--x-x--x-x--3-3--x-x--x--x--x-x-----5-5--x-x--1-1--x-x--3-3--x-x--3--3--x-x-----3-3--x-x--1-1--x-x--1-1--x-x--3--3--x-x-----x-x--x-x--x-x--x-x--x-x--x-x-(1)(1)-x-x--
Yeah, yeahAre we having fun yet? *ring ---3-3--x-x--x-x--x-x--1--------3-3--x-x--x-x--x-x--1--------5-5--x-x--x-x--x-x--3--------5-5--x-x--1-1--x-x--3--------3-3--x-x--1-1--x-x--1--------x-x--x-x--x-x--x-x--x-----Yeah, yeah, yeah no, no
Tap to rate this tab
 
# A B C D E F G H I J K L M N O P Q R S T U V W X Y Z