Night Ranger - Dont Tell Me You Love Me tab

Song: Don't Tell Me You Love Me
Artist: Night Ranger
Tuning: Standard (EADGBE)
Effects: Delay
Tabbed By: Kevin Zmetra

*you must be able to reach the 23 fret & use a bar to play this song*

Tablature Key
/ -slide up	\ -slide down	~ -vibrato

t -thumb tap	f -full bend	b -half bend

q -quarter bend	ah -artifical (pinch) harmonic

h -hameron	p -pulloff	# -very fast repeated picking

* -pick in series of hamerons & pulloffs

/\ (above the tab) -wammy bar 	r -release bend

Intro 2x||--------0----------0----------0----------0-------||Riff A||-----------0----------0----------0----------0----||||*--2/4--------4\2--------2/4--------4\2---------*||||*-----------------------------------------------*||||-------------------------------------------------||||-------------------------------------------------||
|-----------------------| go derectly into|-----------------------| next section|-----------------------||--4--4-4--4-4--4-4--4--||--4--4-4--4-4--4-4--4--||--2--2-2--2-2--2-2--2--|
3x||---------------------------------------------------------||||---------------------------------------------------------||||*-------------------------------------------------------*||||*--4-x-x-x-x--4--4-x-x-x-x--4--4-x-x-x-x--4--4-x-x-x-x--*||||---4-x-x-x-x--4--4-x-x-x-x--4--4-x-x-x-x--4--4-x-x-x-x---||||---2-x-x-x-x--2--2-x-x-x-x--2--2-x-x-x-x--2--2-x-x-x-x---||
play Riff A throughout intro
Verse [----keybord-------------------------------------------|| 2x||-----------------------------------------------------------||||-----------------------------------------------------------||||*--2-----4--4--2--4--4--2-------------------------------*--||||*--2-----4--4--2--4--4--2--4--2--4--2--4--4--2--4--2--4-*--||||---0-----------------------4--2--4--2--4--4--2--4--2--4----||||---------------------------2--0--2--0--2--2--0--2--0--2----||
|--------------------------------------------||--------------------------------------------||--7--9--7--6--4----------7--6--4------------||--7--9--7--6--4-------7-----------7--6--4---||--5--7--5--4--2---/5------------------------||--------------------------------------------|
Chorus|---------------------------------------------------||---------------------------------------------------||-----7--9--6--7--------------7--9--6--7------------||--4--7--9--6--7--7--9--5--4--7--9--6--7--7--9--5---||--4--5--7--4--5--7--9--5--4--5--7--4--5--7--9--5---||--2--------------5--7--3--2--------------5--7--3---|
Riff A 2x Verse Chorus Solo (Chours chord progression)
~~~ ah|--------------------------------------------||--------------------------------------------||--6--4-----6---6p4-----6p4-----6p4-----6f\--||--------7-----------7-------7-------7-------||--------------------------------------------||--------------------------------------------|
ah|---------------------------------------||---------------------------------------||-----4--6p4-----7b--2--4p2h4p2/1h2p1h2-||--7----------7-------------------------||---------------------------------------||---------------------------------------|
|-------------------------------------------------||-------------------------------------------------||--2h4p2h4p2--1h2p1h2---4--6p4\2--4p2--1--2p1-----||----------------------------------------------4--||-------------------------------------------------||-------------------------------------------------|
|----------------------------------------||----------------------------------------||----------------------------------------||--4--6--4--6p4--3h4p3h4p3----------9/12-||---------------------------4--2/8-------||----------------------------------------|
|---------------------------------------||----------------------10--7h10p7-------||--9--11------7/9--11-------------------||---------12----------------------------||---------------------------------------||---------------------------------------|
* * *|--------7--9--7------10--10p9p8h11p10p9h12p11p10---||--7/10-----------10--------------------------------||---------------------------------------------------||---------------------------------------------------||---------------------------------------------------||---------------------------------------------------|
~~~|--14--16--14--16--17--16--17/21----||-----------------------------------||-----------------------------------||-----------------------------------||-----------------------------------||-----------------------------------|
|--21p19------19--17#--16#--17#-----||---------22------------------------||-----------------------------------||-----------------------------------||-----------------------------------||-----------------------------------|
/\/\/\/\/\(go crazy)|--19#--17#--16#--17#--16#--14/22----------||------------------------------------------||------------------------------------------||------------------------------------------||------------------------------------------||------------------------------------------|
[--------------with delay--------------]
2x||--------------------------------------||||--7h10t14-7h10t14-7h10t14-7h10t14-----||||*----------------------------------*--||||*----------------------------------*--||||--------------------------------------||||--------------------------------------||[--------------with delay---------------||
2x||------------------------------------||||--7h10t15-7h10t15-7h10t15-7h10t15---||||*----------------------------------*||||*----------------------------------*||||------------------------------------||||------------------------------------||
[--------------with delay--------------]
2x||------------------------------------||||--7h10t17-7h10t17-7h10t17-7h10t17---||||*----------------------------------*||||*----------------------------------*||||------------------------------------||||------------------------------------||
|------------------------------------------------------------------||-7h10t19-7h10t19-7h10t19-7h10t19-7h10t18-7h10t18-7h10t18-7h10t18--||------------------------------------------------------------------||------------------------------------------------------------------||------------------------------------------------------------------||------------------------------------------------------------------|
|----------7--9--10--7--9--10--14--12--10------12--10--||-------7----------------------------------14----------||--6h7-------------------------------------------------||------------------------------------------------------||------------------------------------------------------||------------------------------------------------------|
|-------------------------17--14----------14------||-14--12--15--14--12--------------17--14------17--||---------------------14--------------------------||-------------------------------------------------||-------------------------------------------------||-------------------------------------------------|
|--9--8--7--10--9--8--9--8--7--5--7--9----||-----------------------------------------||-----------------------------------------||-----------------------------------------||-----------------------------------------||-----------------------------------------|
|-------------16--17--19--21--19--17------19--17----------||-16--17--19--------------------------21----------21--19--||---------------------------------------------------------||---------------------------------------------------------||---------------------------------------------------------||---------------------------------------------------------|
|--17------------------17/19--21p19\17------19--17-----------||------21--17--19--21-------------------21----------21--19---||------------------------------------------------------------||------------------------------------------------------------||------------------------------------------------------------||------------------------------------------------------------|
~~~~|--17----------------------17--19/23--23--23--23------||------21--19--17--19--21-----------------------------||-----------------------------------------------------||-----------------------------------------------------||-----------------------------------------------------||-----------------------------------------------------|
~~~~~~~|--------------17-------------------------||--17--19--21------17--19--20--19---------||-----------------------------------------||-----------------------------------------||-----------------------------------------||-----------------------------------------|
Bridge (Keybord arranged for guitar) 7x||-------------------------------------------||||-------------------------------------------||||*--4--4--2--4--4--2--4--4--2--4--4--2-----*||||*--4--4--2--4--4--2--4--4--2--4--4--2-----*||||-------------------------------------------||||-------------------------------------------||
|--------------------------||--------------------------||-----7--9--6--7-----------||--4--7--9--6--7--7--9--5--||--4--5--7--4--5--7--9--5--||--2--------------5--7--3--|
Repeat chorus Outro Solo
|-----------------------------------------||-----------------------------------------||--12\--/6-6-6--6-6-6--6-6-6/7-7-7--7-7-7-||-----------------------------------------||-----------------------------------------||-----------------------------------------|
|-----------------------------------------||--7-7-7\4-4-4--4-4-4--4-4-4/6-6-6--6-6-6-||-----------------------------------------||-----------------------------------------||-----------------------------------------||-----------------------------------------|
|-------------------------------------------------||--6/7-7-7--7-7-7-7\6-6-6--6-6-6-6-7-7-7-6-7-7-7--||-------------------------------------------------||-------------------------------------------------||-------------------------------------------------||-------------------------------------------------|
~~~~|--/17--19--21----------------------------------||---------------19---19--17---------------------||----------------------------19--16--19p16h19---||-----------------------------------------------||-----------------------------------------------||-----------------------------------------------|
~~~|--19p17----------------22--20------20--22-22-22b-||---------20--19--17------------23----------------||-------------------------------------------------||-------------------------------------------------||-------------------------------------------------||-------------------------------------------------|
|--r22--17h19p17--19f--r19--17h19p17--19--19p17--14--15--17--||------------------------------------------------------------||------------------------------------------------------------||------------------------------------------------------------||------------------------------------------------------------||------------------------------------------------------------|
these next two lines are plaied togetherdive once-> \/ \/ \/ \/ \/| |--14\--14--\--14--\--14--\--14--\--14----| || |-----------------------------------------| || |-----------------------------------------| || |-----------------------------------------| || |-----------------------------------------| || |-----------------------------------------| |
| || |-----------------------------------------| || |-----------------------------------------| || |-----------------------------------------| || |--4---4--4----4--4---4--4----4--4---4----| || |--4---4--4----4--4---4--4----4--4---4----| || |--2---2--2----2--2---2--2----2--2---2----| |
This song is awsome! Because I'm only 14 I can't quite play it but I worked at least 8 hours on it and I'm 95% sure its correct. If you have any questions, you can e-mail me @ freezing_point01@hotmail.com Thanks, & have fun.
Tap to rate this tab
 
# A B C D E F G H I J K L M N O P Q R S T U V W X Y Z