4lyn - Neon tab

Artist: 4Lyn
Song: Neon
Album: Neon
Tabber: mrbraz
Tuning: Drop Db (Db,Ab,Db,Gb,Bb,Eb)

Here´s one of the easiest but best instrumental songs ever.
If you got some corrections or comments send your mail to:mrbraz@web.de


1st partclean delay(13ms)|-------------------------------------------------------||-------------------------------------------------------||-----------------3--2------------------------3-2-------||-3--5---5--3--5--------3-5----3--5---5--3--5-----3--5--||-------------------------------------------------------||-------------------------------------------------------| . . . . . . . . . . . . . . . . . .repeat a coupple of times
then
|------------------------------------------6----------------||-----6-------6------6-------------8----------------8-------||---3---3-------3------3---------5---5--------5-------5-----||-5--------5------5------5-----7--------7-------7-------7---||-----------------------------------------------------------||-----------------------------------------------------------|
|---------------------------------------------------------||---------------------------------------------------------||---------------3--2---------------------------3--2-------||-3--5-5--3--5-------3--5---3--5--3--5-5--3--5------3--5--||---------------------------------------------------------||---------------------------------------------------------| . . . . . . . . . . . . . . . . . . . .repeat
|------------------------------------------6----------------||-----6-------6------6-------------8----------------8-------||---3---3-------3------3---------5---5--------5-------5-----||-5--------5------5------5-----7--------7-------7-------7---||-----------------------------------------------------------||-----------------------------------------------------------|
|---------------------------------------------------------||---------------------------------------------------------||---------------3--2---------------------------3--2-------||-3--5-5--3--5-------3--5---3--5--3--5-5--3--5------3--5--||---------------------------------------------------------||---------------------------------------------------------| . . . . . . . . . . . . . . . . . . . .repeat
|------------------------------------------6----------------||-----6-------6------6-------------8----------------8-------||---3---3-------3------3---------5---5--------5-------5-----||-5--------5------5------5-----7--------7-------7-------7---||-----------------------------------------------------------||-----------------------------------------------------------|
|--------------------------------------------||--------------------------------------------||-----------------3-----------------3--------||-5-3-5-3-5-3-5-3---5-3-5-3-5-3-5-3---5-3----||--------------------------------------------||--------------------------------------------| . . . . . . . . . . . . . . . . . . . .
|-----6-------6------6--------------------------------------------------||---3---3-------3------3------------------------------------------------||-5--------5------5------5---------------------3-----------------3------||------------------------------5-3-5-3-5-3-5-3---5-3-5-3-5-3-5-3---5-3--||-----------------------------------------------------------------------||-----------------------------------------------------------------------| . . . . . . . . . . . . . . . . . . . .
|---------------------------------------------------------||---------------------------------------------------------||---------------3--2---------------------------3--2-------||-3--5-5--3--5-------3--5---3--5--3--5-5--3--5------3--5--||---------------------------------------------------------||---------------------------------------------------------|repeat
2nd part
|-------------------------------------------------||-------------------------------------------------||-------------------------------------------------||-------------------------------------------------||-1~~~~~~~~~p0~~~~-------1~~~~~~~~~p0~~~~---------||-1~~~~~~~~~p0~~~~-------1~~~~~~~~~p0~~~~---------|distorted use a volume swell
|------------------------||------------------------||------------------------||------------------------||-0--1-1--0--1-1--0-1-1--||-0--1-1--0--1-1--0-1-1--| . . . . . . . . .repeat use the volume swell
|-xxxxxxxxxx-xxxxxxxxxxx---||-xxxxxxxxxx-xxxxxxxxxxx---||-3333333333-55555555555---||-1111111111-11111111111---||-1111111111-11111111111---||-1111111111-11111111111---|play a coupple of times
Ending
|---------------------------------------------------------||---------------------------------------------------------||---------------3--2---------------------------3--2-------||-3--5-5--3--5-------3--5---3--5--3--5-5--3--5------3--5--||---------------------------------------------------------||---------------------------------------------------------| . . . . . . . . . . . . . . . . . . . .repeat
Done ..:palm muting p :pull off
Tap to rate this tab
 
# A B C D E F G H I J K L M N O P Q R S T U V W X Y Z