Nunca Te Quise Fallar tab with lyrics by 6 Voltios for guitar @ Guitaretab

6 Voltios – Nunca Te Quise Fallar tab

INTRO

|-9-----------||---9---------||-----11-9----||----------11-||-------------||-------------|
VERSO
|-9--9--9--9--5-5-5-5--7-7-7-7--9--9---7-7--||-9--9--9--9--5-5-5-5--7-7-7-7--9--9---7-7--||-9--9--9--9--6-6-6-6--8-8-8-8--9--9---8-8--|x2|-11-11-11-11-7-7-7-7--9-9-9-9--11-11--9-9--||-------------------------------------------||-------------------------------------------|
CORO
|------------------------------------------------------||------------------------------------------------------||-6-6-6-6-6-6--2-2-2-2-2-2--4-4-4-4-4-4--6-6-6-6-6-6---|x2|-6-6-6-6-6-6--2-2-2-2-2-2--4-4-4-4-4-4--6-6-6-6-6-6---||-4-4-4-4-4-4--0-0-0-0-0-0--2-2-2-2-2-2--4-4-4-4-4-4---||------------------------------------------------------|
|---------------------------------------------------------||---------------------------------------------------------||-2-2-2-2-2-2--4-4-4-4-4-4---------------6-6-6-6-4-4-4-4--||-2-2-2-2-2-2--4-4-4-4-4-4--6-6-6-6-6-6--6-6-6-6-4-4-4-4--|x2|-0-0-0-0-0-0--2-2-2-2-2-2--6-6-6-6-6-6--4-4-4-4-2-2-2-2--||---------------------------4-4-4-4-4-4-------------------|
|---------------------------------------------------------||---------------------------------------------------------||-2-2-2-2-2-2--4-4-4-4-4-4--6-6-6-6-6-6--6-6-6-6-4-4-4-4--||-2-2-2-2-2-2--4-4-4-4-4-4--6-6-6-6-6-6--6-6-6-6-4-4-4-4--|x3|-0-0-0-0-0-0--2-2-2-2-2-2--4-4-4-4-4-4--4-4-4-4-2-2-2-2--||---------------------------------------------------------|
|----------------------------------------||----------------------------------------||-2-2-2-2-2-2--4-4-4-4-4-4--6-6-6-6-6-6--||-2-2-2-2-2-2--4-4-4-4-4-4--6-6-6-6-6-6--||-0-0-0-0-0-0--2-2-2-2-2-2--4-4-4-4-4-4--||----------------------------------------|
VERSO
|-9--9--9--9--9--9--9---5-5-5-5-5-5-5--7-7-7-7-7-7-7--9--9--7-7--||-9--9--9--9--9--9--9---5-5-5-5-5-5-5--7-7-7-7-7-7-7--9--9--7-7--||-9--9--9--9--9--9--9---6-6-6-6-6-6-6--8-8-8-8-8-8-8--9--9--8-8--|x2|-11-11-11-11-11-11-11--7-7-7-7-7-7-6--9-9-9-9-9-9-9--11-11-9-9--||----------------------------------------------------------------||----------------------------------------------------------------|
CORO
|------------------------------------------------------||------------------------------------------------------||-6-6-6-6-6-6--2-2-2-2-2-2--4-4-4-4-4-4--6-6-6-6-6-6---|x2|-6-6-6-6-6-6--2-2-2-2-2-2--4-4-4-4-4-4--6-6-6-6-6-6---||-4-4-4-4-4-4--0-0-0-0-0-0--2-2-2-2-2-2--4-4-4-4-4-4---||------------------------------------------------------|
|---------------------------------------------------------||---------------------------------------------------------||-2-2-2-2-2-2--4-4-4-4-4-4---------------6-6-6-6-4-4-4-4--||-2-2-2-2-2-2--4-4-4-4-4-4--6-6-6-6-6-6--6-6-6-6-4-4-4-4--|x2|-0-0-0-0-0-0--2-2-2-2-2-2--6-6-6-6-6-6--4-4-4-4-2-2-2-2--||---------------------------4-4-4-4-4-4-------------------|
|---------------------------------------------------------||---------------------------------------------------------||-2-2-2-2-2-2--4-4-4-4-4-4--6-6-6-6-6-6--6-6-6-6-4-4-4-4--||-2-2-2-2-2-2--4-4-4-4-4-4--6-6-6-6-6-6--6-6-6-6-4-4-4-4--|x3|-0-0-0-0-0-0--2-2-2-2-2-2--4-4-4-4-4-4--4-4-4-4-2-2-2-2--||---------------------------------------------------------|
|----------------------------------------||----------------------------------------||-2-2-2-2-2-2--4-4-4-4-4-4--6-6-6-6-6-6--||-2-2-2-2-2-2--4-4-4-4-4-4--6-6-6-6-6-6--||-0-0-0-0-0-0--2-2-2-2-2-2--4-4-4-4-4-4--||----------------------------------------|
SOLO
|-------9----------------------------------------------------------||-----9---9-12^-12^-9---------------9----9-------------------------||-11^-----------------11-9----9--11^--11^--9----9-11-9-------------||--------------------------11----------------11--------------------||------------------------------------------------------------------||------------------------------------------------------------------|
|-----12-12-14^-14^-14^-14^----------------------------------------||-13^-----------------------14-12----------------------------------||---------------------------------13-11-9--------------------------||-----------------------------------------11-9---------------------||----------------------------------------------11-10-9-7-9-7-------||------------------------------------------------------------9-7-9-|
|----------------------9---9----------------9---9------------------||----9---------------9-12^---9--------------12^---9----------------||-11^--11-9----9-11^-----------11-9----9-11---------11-9----9------||-----------11----------------------11-------------------11--------||------------------------------------------------------------------||------------------------------------------------------------------|
|-------------------9----------------------------------------------||-9---9---9---9---9---12-9-----------------------------------------||-11^-11^-11^-11^----------11-9--------------9---------------------||-------------------------------11-9-11~--11---11-9----------------||---------------------------------------------------11-10-9-7------||-------------------------------------------------------------9-7--|
CORO
|---------------------------------------------------------||---------------------------------------------------------||-2-2-2-2-2-2--4-4-4-4-4-4--6-6-6-6-6-6--6-6-6-6-4-4-4-4--||-2-2-2-2-2-2--4-4-4-4-4-4--6-6-6-6-6-6--6-6-6-6-4-4-4-4--|x3|-0-0-0-0-0-0--2-2-2-2-2-2--4-4-4-4-4-4--4-4-4-4-2-2-2-2--||---------------------------------------------------------|
|----------------------------------------||----------------------------------------||-2-2-2-2-2-2--4-4-4-4-4-4--6-6-6-6-6-6--||-2-2-2-2-2-2--4-4-4-4-4-4--6-6-6-6-6-6--||-0-0-0-0-0-0--2-2-2-2-2-2--4-4-4-4-4-4--||----------------------------------------|
OUTRO
|----------------------------------------||----------------------------------------||-2-2-2-2-2-2--4-4-4-4-4-4--6-6-6-6-6-6--||-2-2-2-2-2-2--4-4-4-4-4-4--6-6-6-6-6-6--|x2|-0-0-0-0-0-0--2-2-2-2-2-2--4-4-4-4-4-4--||----------------------------------------|
Please rate this tab:
x1.0