Offspring - Killboy Powerhead tab

Killboy Powerhead
by Offspring
off the album, Smash


intro (play twice)

-------------------------------------------------------------9--9/7/9/7---x-12---x-9-------9--9/7/9/7---x-12---x-9-------7--7/5/7/5---x-10---x-7------------------------------------
first verse (4 times)
-------------------------------------------------------------9--9/7/9/7---x-12---x-9-------9--9/7/9/7---x-12---x-9-------7--7/5/7/5---x-10---x-7------------------------------------
chorus Killboy Powerhead....
-------------------------------------------------------------------------------9----5----7--------9-9-----5-5---7-7---9----5----7--------9-9-----5-5---7-7---7----3----5--------7-7-----3-3---5-5-----------------------------------------
rhythm 2 (repeat several times)
-------------------------------------------------------------9--9/7/9---9/7/9---x-12--x-9--9--9/7/9---9/7/9---x-12--x-9--7--7/5/7---7/5/7---x-10--x-7-------------------------------
verse 2
-------------------------------------------------------------9-----------------------------9-----------------------------7----------------------------------------------------------
-------------------------------------------------------------------------------------------9--9/7/9---9/7/9---x-12--x-9--9--9/7/9---9/7/9---x-12--x-9--7--7/5/7---7/5/7---x-10--x-7-
repeat chorus rhythm 3
----------------------------------------------------------------------------------------------------------------10--10/8/10--10/8/10----x-13--x-10---10--10/8/10--10/8/10----x-13--x-10----8---8/6/-8---8/6/-8----x-11--x--8--
-------------------------------------------------------------------------------------------------------------10-10-10-10----6-6-6-6----8-8-8-8---10-10-10-10----6-6-6-6----8-8-8-8----8--8--8--8----4-4-4-4----6-6-6-6--
-------------------------------------------------------------------------------------------10-10---6-6---8-8-------------10-10---6-6---8-8--------------8--8---4-4---6-6------------
repeat intro repeat chorus repeat rhythm 2 repeat intro
Tap to rate this tab
 
# A B C D E F G H I J K L M N O P Q R S T U V W X Y Z