Offspring - Smash Album tab

Date: Sat, 03 Jun 1995 17:16:40 +0100
From: David Worsley 
Subject: Offspring - Smash Album

This is the entire Offspring album SMASH transcribed by Jamie and David
Worsley and their
good friend Alex Wood. We've posted chords and rhythm as well as we can, but
in some
cases you might have to work out how many times a chord is strummed.(A * by
a chord
means strum it more than once, usually 4 times). Incidentally, some of this
was "borrowed"
from other peoples tab work, but a lot of it was horrendously messy and
craply done
previously.
_____________________________________________________________________

Ah, it's time to relax, and you know what that means, a glass of
wine, your favourite easy chair, and of course this compact disc
playing on your home stereo. So go on indulge yourself, that's right,
kick off your shoes, put your feet up, lean back and and just enjoy
the melodies. After all, music soothes even the savage beast....

NITRO

intro

|-----------------------------------------------------||-----------------------------------------------------||-10-10-10-10----13---10-8-10---------------8-8-8-8---||-10-10-10-10----13---10-8-10----6-6-6-6----8-8-8-8---||-8--8--8--8-----11---8--6-8-----6-6-6-6----6-6-6-6---||--------------------------------4-4-4-4--------------|
verse
|--------------|-------------------|-----------------------||--------------|-------------------|-----------------------||-10-------8---|---10-------8---8--|--10-------8---6*--8*--||-10---6---8---|---10---6---8---8--|--10---6---8---6---8---||-8----6---6---|---8----6---6---6--|--8----6---6---4---6---||------4-------|--------4----------|-------4---------------|
chorus 1
|-------------------|-------------------|----------------------||-------------------|-------------------|----------------------||-10-10-10-10-----8-|-10-10-10-10-----8-|----------------------||-10-10-10-10-5-6-8-|-10-10-10-10-5-6-8-|-3*-6*-8*-11-11-13-13-||-8--8--8--8--5-6-6-|-8--8--8--8--5-6-6-|-3--6--8--11-11-13-13-||-------------3-4---|-------------3-4---|-1--4--6--9--9--11-11-|
chorus 2
------------------------------------------||-----------------------------------------||-10-10-10-10---------------------6--8----||-10-10-10-10--6-6-6-6--8-8-8-8---6--8----||-8--8--8--8---6-6-6-6--8-8-8-8---4--6----||--------------4-4-4-4--6-6-6-6-----------|
rhythm 1
|---------------------------------------||---------------------------------------||-10-10--------8-8---10-10---------8--8-||-10-10--6-6---8-8---10-10---6-6---8--8-||-8--8---6-6---6-6---8--8----6-6---6--6-||--------4-4-----------------4-4--------|
rhythm 2
|---------------------------------||---------------------------------||---------------------------------||-3*--6*--8*--11--11--13--13------||-3---6---8---11--11--13--13------||-1---4---6---9---9---11--11------|
|---------------------------------------||---------------------------------------||-5-5-5---------------------------------||-5-5-5---6-6-6---8-8-8---3--3--3--6--3-||-3-3-3---6-6-6---8-8-8---3--3--3--6--3-||---------4-4-4---6-6-6---1--1--1--4--1-|
|---------------------------||---------------------------||-5-5-5----------------6--8-||-5-5-5--6-6-6--8-8-8--6--8-||-3-3-3--6-6-6--8-8-8--4--6-||--------4-4-4--6-6-6-------|
outro
|--------------------||-9--9--9--9--9--9---||--10-10-10-10-10-10-||--------------------||--------------------||--------------------|
_____________________________________________________________________ BAD HABIT intro
|---------------------||---------------------||-2--x-x-x-2--x-x-x-2-||-2--x-x-x-2--x-x-x-2-||-0--x-x-x-0--x-x-x-0-||---------------------|
verse
|-----------------------------------||-----------------------------------||-2-5-7-5-2-5-2-5-2-----------------||-2-5-7-5-2-5-2-5-2----let ring-----||-0-3-5-3-0-3-0-3-0-then pick slide-||-----------------------------------|
rhythm 1
|-----------------------------------------||-----------------------------------------||-----------------------------------------||-5---------5---------5---------5---------||-5---------5---------5---------5---------||-3-3-3-3-3-3-3-3-3-3-3-3-3-3-3-3-3-3-3-3-|
|-----------------------------------------||-----------------------------------------||-9---------9---------9---------9---------||-9---------9---------9---------9---------||-7-7-7-7-7-7-7-7-7-7-7-7-7-7-7-7-7-7-7-7-||-----------------------------------------|
chorus
|-------------------------||-------------------------||-2-9-10-5--7-7-7--9-9-9--||-2-9-10-5--7-7-7--9-9-9--||-0-7-8--3--5-5-5--7-7-7--||-------------------------|
rhythm 2|-----------------------------------------------------||-----------------------------------------------------||-2-----------------x-10-10---7-----------------x-9-9-||-2-----------------x-10-10---7-----------------x-9-9-||-0-0-0-0-0-0-0-0-0-x-8--8----5-5-5-5-5-5-5-5-5-x-7-7-||-----------------------------------------------------|
|-------------------------------------------||-------------------------------------------||-x-9-9-9-9-9-9-9-9------2------------------||-x-9-9-9-9-9-9-9-9------2--then pick slide-||-x-7-7-7-7-7-7-7-7------0------------------||-------------------------------------------|
|---------------------||---------------------||-9-9-8-7-7-9-8-7-5-2-||-7-7-6-5-5-9-8-7-5-2-||-----------7-6-5-3-0-||---------------------|
_____________________________________________________________________ GOTTA GET AWAY intro
|-10-10----3-3-3--0------10-10----3-3-5--0-||----------3-3-2--0---------------3-3-3--0-||------------------------------------------||------------------------------------------||------------------------------------------||------------------------------------------|
main riff
|-------------------------------------------------------------------||-------------------------------------------------------------------||9-9s7-7-9-9s7-7-9-9s12-12-9-9s12-12-9-9s14-14-9-9s14-14-9-10-9-10-9||9-9s7-7-9-9s7-7-9-9s12-12-9-9s12-12-9-9s14-14-9-9s14-14-9-10-9-10-9||7-7s5-5-7-7s5-5-7-7s10-10-7-7s10-10-7-7s12-12-7-7s12-12-7-8--7-8--7||-------------------------------------------------------------------|
Verse
|----------------------------------------------------------------||----------------------------------------------------------------||-----7-7-----7-7-----9-9-----9-9-----12-12-----14---9-10-9-10-9-||-----7-7-----7-7-----9-9-----9-9-----12-12-----14---9-10-9-10-9-||-----5-5-----5-5-----7-7-----7-7-----10-10-----12---7-8--7-8--7-||-0-0-----0-0-----0-0-----0-0-----0-0-------0-0------------------|
Chorus|----------------------------------------||----------------------------------------||-9-9-9--------------------------7-7-7-7-||-9-9-9--9s10-10-10-10--5-5-5-5--7-7-7-7-||-7-7-7--9s10-10-10-10--5-5-5-5--5-5-5-5-||--------7s8--8--8--8---3-3-3-3----------|
_____________________________________________________________________ GENOCIDE intro
|-------------------------------------||-------------------------------------||-----------------------------5-5-5-5-||-5-5-5-5-5-5-5-5-5--3-3-3-3--5-5-5-5-||-5-5-5-5-5-5-5-5-5--3-3-3-3--3-3-3-3-||-3-3-3-3-3-3-3-3-3--1-1-1-1----------|
fast riff (trill each note, follow music on CD)
|-6-5-6-8-6-5---5-6--------------|This might be slightly wrong.|-------------6-----5--5-6-5-3-5-|Play with speed - no-one will|--------------------------------|notice.|--------------------------------||--------------------------------||--------------------------------|
|------------------------------------------||------------------------------------------||-0-0-0-0-0-0-0-0-0-0-0-0-0-0-0-0--5-5-5-5-||----------------------------------5-5-5-5-||----------------------------------3-3-3-3-||------------------------------------------|
chorus
|--------------------||--------------------||--------------------||-5----8----15----10-||-5----8----15----10-||-3----6----13----8--|
bridge
|--------||--------||-8----5-||-8----5-||-6----3-||--------|
coda
|----------------------------------------------||----------------------------------------------||----------------------------------------------||----------------------------------------------||--5-5-5-5-8-8-8-8--15--15--15--15-10-10-10-10-||-3-3-3-3-6-6-6-6-13--13--13--13--8--8--8--8---|
over coda
|---------------------------||---------------------------||---------------------------||-5-5---8-8---15-15---10-10-||-5-5---8-8---15-15---10-10-||-3-3---6-6---13-13---8--8--|
_____________________________________________________________________ SOMETHING TO BELIEVE IN intro with pickscrape
|----------------------||----------------------||-10---------5-8----10-||-10-3--5-6--5-8--8-10-||-8--3--5-6--3-6--8-8--||----1--3-4-------6----|
verse
|-----------------------------------|Two rhythms with these chords,|-----------------------------------|easy to work out. Play chord in|----------8-8--3-3-3-3---------(5)-|brackets on last one of each|-6-6-6-6--8-8--3-3-3-3--3-3----(5)-|verse.|-6-6-6-6--6-6--1-1-1-1--3-3----(3)-||-4-4-4-4----------------1-1--------|
chorus
|----------------||----------------||---10---8--13-8-||-3-10-6-8--13-8-||-3-8--6-6--11-6-||-1----4---------|
|----------||----------||-----TREM-||-3---3----||-3---3----||-1---1----|
_____________________________________________________________________ COME OUT AND PLAY
intro|-5-5-5-|Harmonics|-5-5-5-||-5-5-5-||-------||-------||-------|
intro and chorus
|-----------------------------|Chords in brackets are played after|-----------------------------|fig in various parts of the song. It|-4-4-4---7---------------(4)-|is easy to work out but don't get them|-4-4-4---7---4---7--(4)--(4)-|confused.|-2-2-2->-5---4---7--(4)--(2)-||-------------2->-5--(2)------|
guitar 2
|--------------------||--------------------||-11-11-11->-14--9-9-||--------------------||--------------------||--------------------|
egyptian guitar riff
|-------------------------||-------------------------||-------------------------||-----1-2-4-2-1-----------||-2-3-----------3-2-2-3-2-||-------------------------|
verse
|-----------------------------------||-----------------------------------||-4-4-4------------4-4-4---7--------||-4-4-4-4--4---7---4-4-4---7--4---7-||-2-2-2-4--4---7---2-2-2->-5--4---7-||-------2--2->-5--------------2->-5-|
chorus
|-----------------------------||-----------------------------||-9-9--12-12--11-11-11--------||-9-9--12-12--11-11-11-9-9-9--||-7-7--10-10--9--9--9--9-9-9--||----------------------7-7-7--|
bridge
|------------------------||------------------------||------------------------||-9-9-9-9--5-5-5-5-5-5-5-||-7-7-7-7--3-3-3-3-3-3-3-||------------------------|
_____________________________________________________________________ SELF ESTEEM main riff
|------------------------------------------------|Play chord in|------------------------------------------------|brackets at end of|----------------10-10---5-5---------------------|each whole section.|-7--7--x-x-x-x--10-10---5-5--x-x-x-x--5-5---(3)-|Don't forget palm-|-7--7--x-x-x-x--8--8----3-3--x-x-x-x--5-5---(3)-|muting in necessary|-5--5--x-x-x-x---------------x-x-x-x--3-3---(1)-|places in whole song.fill in
|-----------||-----------||-----------||-x-12-x-12-||-x-12-x-12-||-x-10-x-10-|
|---------------------------------------------------------||---------------------------------------------------------||------------------------5-5-5-5-5------------------------||-7-7-7-7-7--3-3-3-3-3---5-5-5-5-5--5-5-5-5-5---7-7-7-7-7-||-7-7-7-7-7--3-3-3-3-3->-3-3-3-3-3--5-5-5-5-5---7-7-7-7-7-||-5-5-5-5-5--1-1-1-1-1--------------3-3-3-3-3->-5-5-5-5-5-|
bridge
|-----------------------------||-----------------------------||-7-7-x-3-3-x-----x-5-5-5-5-5-||-7-7-x-3-3-x-3-3-x-5-5-5-5-5-||-5-5-x-1-1-x-3-3-x-3-3-3-3-3-||-----x-----x-1-1-x-----------|
end
|---------------------------------------------||---------------------------------------------||-7-7-x-3-3-x-5-5-x---------------------------||-7-7-x-3-3-x-5-5-x-5-5-x-3-3-3-3-3-3-3-3-3-3-||-5-5-x-1-1-x-3-3-x-5-5-x-3-3-3-3-3-3-3-3-3-3-||-------------------3-3-x-1-1-1-1-1-1-1-1-1-1-|
_____________________________________________________________________ IT'LL BE A LONG TIME main riff
|-------------------------------|2 rhythms to this riff, easy to work|-------------------------------|out, don't forget palm-muting.|-7-7--5---7-7--5---3-3-10-10-7-||-7-7--5---7-7--5---3-3-10-10-7-||-5-5--3->-5-5--3->-1-1-8--8--5-||-------------------------------|
chorus
|----------------------------------|-------------|-------||----------------------------------|-------------|-------||-7-7-7--10--10--5--7-----5--5---7-|----5--5-7-7-|-5---2-||-7-7-7--10--10--5--7--8--5--5-7-7-|-8--5--5-7-7-|-5---2-||-5-5-5--8-------3--5--8--3--3-7-5-|-8--3--3-7-5-|-3---0-||----------------------6-------5---|-6-------5---|-------|
bridge
|-----------------------------|-------------------------------||-----------------------------|-------------------------------||-7-7-7---5-5--12-12-12---7-7-|-5-5-5-5-----------7-7-7-7-7-7-||-7-7-7---5-5--12-12-12---7-7-|-5-5-5-5--5-5-5-5--7-7-7-7-7-7-||-5-5-5->-3-3--10-10-10->-5-5-|-3-3-3-3--5-5-5-5--5-5-5-5-5-5-||-----------------------------|----------3-3-3-3--------------|
solo over main riff
|-----------|-----------|-----------||-6-6-5-5-6-|-6-6-5-5-6-|-----8-8-3-||-5-5-4-4-5-|-5-5-4-4-5-|-5-5-7-7-2-|=7F|-----------|-----------|-5-5-------||-----------|-----------|-----------||-----------|-----------|-----------|
_____________________________________________________________________ KILLBOY POWERHEAD intro and verse
|---------------------------||---------------------------||-9--9>7>9>7---10-12---x-11-||-9--9>7>9>7---10-12---x-11-||-7--7>5>7>5---10-10---x-9--||---------------------------|
chorus|-----------------------------||-----------------------------||-9---5---7---9-9---5-5---7-7-||-9---5---7---9-9---5-5---7-7-||-7---3---5---7-7---3-3---5-5-||-----------------------------|
rhythm 1
|---------------------||---------------------||-4-2-2-4-2-2-4-4-7-4-||-4-2-2-4-2-2-4-4-7-4-||-2-0-0-2-0-0-2-2-5-2-||---------------------|
verse 2
|---||---||-9-||-9-||-7-||---|
rhythm 2
|------------------------------------||------------------------------------||------------------------------------||-10-x-8->-10-x--8->-10--10--13--x-8-||-10-x-8->-10-x--8->-10--10--13--x-8-||-8--x-6->-8--x--6->-8---8---11--x-6-|
rhyth=7Fm 3
|--------------------------------||--------------------------------||--------------------------------||-10*--6*--8*--10-10---6-6---8-8-||-10---6---8---10-10---6-6---8-8-||-8----4---6---8--8----4-4---6-6-|
_____________________________________________________________________ WHAT HAPPENED TO YOU intro
|-------------------------------|Work out how many times to play|-------------------------------|chords from CD.|-------10----10---10----10-9-8-||-8-10--10-10-10-8-10-10-10-9-8-||-8-10--8--10-8--8-8--10-8--7-6-||-6-8------8-----6----8---------|
verse
|-----------||-----------||-7------10-||-7-8-10-10-||-5-8-10-8--||---6-8-----|
chorus
|-----------||-----------||-7---10----||-7-8-10-10-||-5-8-8--10-||---6----8--|
solo - over verse chords
|-------------------------------------||-------------------------------------||-----------5--7--5--7b9r7--5---5--7--||------5--7-------------------7-------||-5--8--------------------------------||-------------------------------------|
|---------------------------------||------------------------8-8------||-----------5--7--5--7b9-----7--5-||------5--7-----------------------||-5--8----------------------------||---------------------------------|
|-------------------------------------------------------10-----||-------------------------------------------------10-13----13--||--------------------10--12--10--12b14r12--10--12--------------||-------------10-12--------------------------------------------||-------10-12--------------------------------------------------||-10-13--------------------------------------------------------|
|-10b11r10--13-10-13--15-13-15b17--15b17--15-13------------13-||-----------------------------------------------15--13--15----||-------------------------------------------------------------||-------------------------------------------------------------||-------------------------------------------------------------||-------------------------------------------------------------|
end
|---------------------------||---------------------------||----------10---10-10----10-||-8-10-----10-8-10-10-10-10-||-8-10-x3--8--8-8--8--10-8--||-6-8---------6-------8-----|
_____________________________________________________________________ SO ALONE main riff
|-----------------------||-----------------------||-4-4-x-7-7-------------||-4-4-x-7-7-x-7-7-x-9-9-||-2-2-x-5-5-x-7-7-x-9-9-||-----------x-5-5-x-7-7-|
chorus with pickscrapes in between chords
|-------------------||-------------------||-------------------||--7----9----7----4-||--7----9----7----4-||--5----7----5----2-|
rhythm 1
|---------------------||---------------------||-4-4-x-7-7-----------||-4-4-x-7-7-x-7-7-x-9-||-2-2-x-5-5-x-7-7-x-9-||-----------x-5-5-x-7-|
|----------------------------------------||----------------------------------------||----------------------------------------||-7--------------------------------------||-7--------------------------------------||-5-5-5-5---5-5-5---5-5-5--5-5-5---5-5-5-|
_____________________________________________________________________ NOT THE ONE main riff
|------------------| 2 rhythms - easy to work out.|------------------||-5-5-5---7--7-7-7-||-5-5-5---7--7-7-7-||-3-3-3->-5--7-7-7-||------------5-5-5-|
chorus
|---------------------------||---------------------------||------4---5-5--5-5---7-----||-7-7--4---5-5--5-5---7-7-7-||-7-7--2->-3-3--3-3->-5-7-7-||-5-5-------------------5-5-|
_____________________________________________________________________ SMASH main riff
|-----------------------------------------|The next part of the song|-----------------------------------------|is the same chords but|-10-10-10--------------------------------|with a different rhythm|-10-10-10-10--11-11---6---8-8-8-8--10-10-|and palm-muting.|-8--8--8--10--11-11---6---8-8-8-8--10-10-||----------8->-9--9----4->-6-6-6-6--8--8--|
chorus
|-------------|-------------|These chords are also played later|-------------|-------------|in the song with a different but|----8--6---8-|----8--6->-5-|easy rhythm.|-6--8--6---8-|-6--8--6->-5-||-6--6--4->-6-|-6--6--4->-3-||-4-----------|-4-----------|
post chorus
|-------------||-------------||-------------||-------------||---3-4-3-----||-1-------4-3-|
bridge
|---------------------------||---------------------------||-10-10--8-8--6-6--8-8--9-9-||-10-10--8-8--6-6--8-8--9-9-||-8--8---6-6--4-4--6-6--7-7-||---------------------------|
behind bridge
|-------------------||-------------------||-------------------||-------------------||-----3-3-4-4-3-----||-1-1-----------4-3-|
last bridge
|----------------------------||----------------------------||-10-10--8-8--6-6--8-8-5---8-||-10-10--8-8--6-6--8-8-5-8-8-||-8--8---6-6--4-4--6-6-3-8-6-||------------------------6---|
_____________________________________________________________________ There, I hope you enjoyed our time together today. You know it seems harder and harder to just sit back and enjoy the finer things in life. Well, 'til next time... ta ta...... Mail me at:- m.worsley@bbcnc.org.uk
Tap to rate this tab
 
# A B C D E F G H I J K L M N O P Q R S T U V W X Y Z