Old Mans Child - Soul Possessed tab

                  OLD MAN'S CHILD - SOUL POSSESSED


Tabbed : Esa Mikkola (Finland)

Palm-muted notes are marked with these ......
\     slide


There are lots of fills and many 2nd guitar parts but I only
tabbed one guitar. You should easily hear those fills if they
are so important.

If you want to say something about this tab mail me
esamikkola@hotmail.com

I will tab more Old Man's child soon...


Intro riff (I am not sure if this is played with two guitars
            so one guitar plays those notes on d string and other
            plays those on a string.If you have two guitarists
            in your band or whatever try it like that)

|---------------------------------------||---------------------------------------||---------------------------------------||5------7------9-----4------5------7----||7------9------10----6------7------9----||--0000---0000----00---0000---0000---00-| .... .... .. .... .... ..
Play this few times then
|---------------------------------------||---------------------------------------||5------7------9-----4------5------7----||7------9------10----6------7------9----||--0000---0000----00---0000---0000---00-||---------------------------------------| .... .... .. .... .... ..
Then comes four chords and I am not sure about those but these sound OK.
|------------||------------||9--4--7--8--||9\-4--5--8--||7\-2-----6--||------------|
Riff 1|--------------------------------------||--------------------------------------||--------------------------------------||---9----8-9-----------9----8-9--------||---7----6-7-----------7----6-7--------||00---00-----000-00-00---00-----000-00-| .. .. ... .. .. .. ... ..
Riff 1 continues
|----------------------------------------||----------------------------------------||----------------------------------------||---9----8-9------------11----8-9------8-||---7----6-7------------9-----6-7------6-||00---00-----000-00-00----00-------000---| .. .. ... .. .. .. ...
Verse riff play this part only the 1st and the 3rd time
|------------------------------||------------------------------||------------------------------||9-----8-9-----8-9-----8-9-11\-||7-----6-7-----6-7-----6-7-9-\-||--000-----000-----000---------| ... ... ...
verse continues This part is played the 2nd and the 4th time
|--------------------------------||----------------------*-*-*--*--|*2nd guitar plays these |----------------------8-9-11-8--| four notes|9-----8-9-----8-9-----8---------||7-----6-7-----6-7-----6-7-9-6---||--000-----000-----000-----------| ... ... ...
Then play those four chords again Then play riff 1 few times and verse Chorus
|-------------------------------------------||-------------------------------------------||5----7-------------------------------------||5----7----9-----8-9-----8-9-----8-9-----8--||3----5----7-----6-7-----6-7-----6-7-----6--||------------000-----000-----000-----000----| ... ... ... ...
Riff 3
|------------------------------------||------------------------------------||------------------------------------||-------9----------------------------||10-9-6-7-77777777-7-9-10-9----------||-------------------------7-77777777-| ........ ........
Riff 3 continues
|-------------------------------------||-------------------------------------||-------------------------------------||-------9-----------------7-----------||10-9-6-7-77777777-7-9-10-5-55555555--||-------------------------------------| ........ ........
Then play intro riff few times Riff 4
|-------------------------------------------------||-------------------------------------------------||-------------------------------------------------||----------11-----------5-----------7-----------8-||----------9------------3-----------5-----------6-||000-00000----000-00000---000-00000---000-00000---|
Then play verse once and chorus All riffs are there so enjoy!
Tap to rate this tab
 
# A B C D E F G H I J K L M N O P Q R S T U V W X Y Z